ISO-10303-21;
HEADER;
FILE_DESCRIPTION (( 'STEP AP214' ),
    '1' );
FILE_NAME ('2046052.STEP',
    '2016-04-27T06:14:52',
    ( '' ),
    ( '' ),
    'SwSTEP 2.0',
    'SolidWorks 2014',
    '' );
FILE_SCHEMA (( 'AUTOMOTIVE_DESIGN' ));
ENDSEC;

DATA;
#1 = CARTESIAN_POINT ( 'NONE',  ( 17.50000000000000000, 0.0000000000000000000, 0.0000000000000000000 ) ) ;
#2 = ADVANCED_FACE ( 'NONE', ( #53, #198 ), #100, .F. ) ;
#3 =( LENGTH_UNIT ( ) NAMED_UNIT ( * ) SI_UNIT ( .MILLI., .METRE. ) );
#4 = EDGE_LOOP ( 'NONE', ( #8, #176 ) ) ;
#5 = EDGE_CURVE ( 'NONE', #88, #43, #57, .T. ) ;
#6 = FACE_OUTER_BOUND ( 'NONE', #124, .T. ) ;
#7 = MANIFOLD_SOLID_BREP ( 'Rotation1', #92 ) ;
#8 = ORIENTED_EDGE ( 'NONE', *, *, #59, .T. ) ;
#9 = ORIENTED_EDGE ( 'NONE', *, *, #28, .T. ) ;
#10 = ORIENTED_EDGE ( 'NONE', *, *, #49, .T. ) ;
#11 = FACE_OUTER_BOUND ( 'NONE', #128, .T. ) ;
#12 = AXIS2_PLACEMENT_3D ( 'NONE', #41, #24, #169 ) ;
#13 = ORIENTED_EDGE ( 'NONE', *, *, #163, .F. ) ;
#14 = CARTESIAN_POINT ( 'NONE',  ( -17.50000000000000000, 0.0000000000000000000, 7.000000000000000000 ) ) ;
#15 = ORIENTED_EDGE ( 'NONE', *, *, #200, .F. ) ;
#16 = EDGE_CURVE ( 'NONE', #72, #40, #117, .T. ) ;
#17 = CARTESIAN_POINT ( 'NONE',  ( -17.50000000000000000, 0.0000000000000000000, 0.0000000000000000000 ) ) ;
#18 = LINE ( 'NONE', #65, #112 ) ;
#19 = DIRECTION ( 'NONE',  ( 0.0000000000000000000, 0.0000000000000000000, 1.000000000000000000 ) ) ;
#20 = ADVANCED_FACE ( 'NONE', ( #161 ), #27, .T. ) ;
#21 = SURFACE_STYLE_FILL_AREA ( #90 ) ;
#22 = VERTEX_POINT ( 'NONE', #116 ) ;
#23 =( NAMED_UNIT ( * ) SI_UNIT ( $, .STERADIAN. ) SOLID_ANGLE_UNIT ( ) );
#24 = DIRECTION ( 'NONE',  ( -1.000000000000000000, -0.0000000000000000000, -0.0000000000000000000 ) ) ;
#25 = ORIENTED_EDGE ( 'NONE', *, *, #49, .F. ) ;
#26 = AXIS2_PLACEMENT_3D ( 'NONE', #165, #105, #212 ) ;
#27 = CYLINDRICAL_SURFACE ( 'NONE', #191, 9.250000000000001800 ) ;
#28 = EDGE_CURVE ( 'NONE', #40, #72, #64, .T. ) ;
#29 = COLOUR_RGB ( '',0.7529411764705882200, 0.7529411764705882200, 0.7529411764705882200 ) ;
#30 = ORIENTED_EDGE ( 'NONE', *, *, #74, .F. ) ;
#31 = CARTESIAN_POINT ( 'NONE',  ( -17.50000000000000000, 0.0000000000000000000, 0.0000000000000000000 ) ) ;
#32 = ORIENTED_EDGE ( 'NONE', *, *, #28, .F. ) ;
#33 = CARTESIAN_POINT ( 'NONE',  ( 17.50000000000000000, 0.0000000000000000000, 0.0000000000000000000 ) ) ;
#34 = CARTESIAN_POINT ( 'NONE',  ( -17.50000000000000000, 1.132798289211301900E-015, -9.250000000000001800 ) ) ;
#35 = ORIENTED_EDGE ( 'NONE', *, *, #16, .F. ) ;
#36 = AXIS2_PLACEMENT_3D ( 'NONE', #93, #171, #75 ) ;
#37 =( NAMED_UNIT ( * ) PLANE_ANGLE_UNIT ( ) SI_UNIT ( $, .RADIAN. ) );
#38 = DIRECTION ( 'NONE',  ( 0.0000000000000000000, 0.0000000000000000000, 1.000000000000000000 ) ) ;
#39 = PRODUCT_DEFINITION_SHAPE ( 'NONE', 'NONE',  #190 ) ;
#40 = VERTEX_POINT ( 'NONE', #47 ) ;
#41 = CARTESIAN_POINT ( 'NONE',  ( 17.50000000000000000, 0.0000000000000000000, 0.0000000000000000000 ) ) ;
#42 = EDGE_CURVE ( 'NONE', #97, #72, #46, .T. ) ;
#43 = VERTEX_POINT ( 'NONE', #85 ) ;
#44 = AXIS2_PLACEMENT_3D ( 'NONE', #17, #67, #51 ) ;
#45 = FILL_AREA_STYLE ('',( #84 ) ) ;
#46 = LINE ( 'NONE', #14, #91 ) ;
#47 = CARTESIAN_POINT ( 'NONE',  ( -17.50000000000000000, 8.572527594031473200E-016, -7.000000000000000000 ) ) ;
#48 = DIRECTION ( 'NONE',  ( 0.0000000000000000000, 0.0000000000000000000, 1.000000000000000000 ) ) ;
#49 = EDGE_CURVE ( 'NONE', #213, #172, #76, .T. ) ;
#50 = ORIENTED_EDGE ( 'NONE', *, *, #74, .T. ) ;
#51 = DIRECTION ( 'NONE',  ( 0.0000000000000000000, 0.0000000000000000000, 1.000000000000000000 ) ) ;
#52 = PRODUCT_CONTEXT ( 'NONE', #184, 'mechanical' ) ;
#53 = FACE_BOUND ( 'NONE', #188, .T. ) ;
#54 = CYLINDRICAL_SURFACE ( 'NONE', #55, 7.000000000000000000 ) ;
#55 = AXIS2_PLACEMENT_3D ( 'NONE', #181, #106, #118 ) ;
#56 = ORIENTED_EDGE ( 'NONE', *, *, #5, .T. ) ;
#57 = CIRCLE ( 'NONE', #98, 9.250000000000001800 ) ;
#58 = ORIENTED_EDGE ( 'NONE', *, *, #187, .F. ) ;
#59 = EDGE_CURVE ( 'NONE', #97, #22, #95, .T. ) ;
#60 = CARTESIAN_POINT ( 'NONE',  ( 0.0000000000000000000, 0.0000000000000000000, 0.0000000000000000000 ) ) ;
#61 = FACE_OUTER_BOUND ( 'NONE', #180, .T. ) ;
#62 = DIRECTION ( 'NONE',  ( -1.000000000000000000, -0.0000000000000000000, -0.0000000000000000000 ) ) ;
#63 = EDGE_LOOP ( 'NONE', ( #138, #10, #208, #121 ) ) ;
#64 = CIRCLE ( 'NONE', #182, 7.000000000000000000 ) ;
#65 = CARTESIAN_POINT ( 'NONE',  ( -17.50000000000000000, 8.572527594031473200E-016, -7.000000000000000000 ) ) ;
#66 = VECTOR ( 'NONE', #214, 1000.000000000000000 ) ;
#67 = DIRECTION ( 'NONE',  ( -1.000000000000000000, -0.0000000000000000000, -0.0000000000000000000 ) ) ;
#68 = AXIS2_PLACEMENT_3D ( 'NONE', #195, #146, #115 ) ;
#69 = ADVANCED_FACE ( 'NONE', ( #61, #113 ), #132, .F. ) ;
#70 = APPLICATION_PROTOCOL_DEFINITION ( 'draft international standard', 'automotive_design', 1998, #168 ) ;
#71 = UNCERTAINTY_MEASURE_WITH_UNIT (LENGTH_MEASURE( 1.000000000000000100E-005 ), #3, 'distance_accuracy_value', 'NONE');
#72 = VERTEX_POINT ( 'NONE', #131 ) ;
#73 = EDGE_LOOP ( 'NONE', ( #149, #50, #9, #206 ) ) ;
#74 = EDGE_CURVE ( 'NONE', #22, #40, #18, .T. ) ;
#75 = DIRECTION ( 'NONE',  ( 0.0000000000000000000, 0.0000000000000000000, 1.000000000000000000 ) ) ;
#76 = CIRCLE ( 'NONE', #170, 9.250000000000001800 ) ;
#77 = SURFACE_STYLE_USAGE ( .BOTH. , #159 ) ;
#78 = COLOUR_RGB ( '',0.7529411764705882200, 0.7529411764705882200, 0.7529411764705882200 ) ;
#79 = AXIS2_PLACEMENT_3D ( 'NONE', #1, #122, #19 ) ;
#80 = CARTESIAN_POINT ( 'NONE',  ( -17.50000000000000000, 0.0000000000000000000, 0.0000000000000000000 ) ) ;
#81 = CARTESIAN_POINT ( 'NONE',  ( 17.50000000000000000, 0.0000000000000000000, 9.250000000000001800 ) ) ;
#82 = DIRECTION ( 'NONE',  ( 0.0000000000000000000, 0.0000000000000000000, 1.000000000000000000 ) ) ;
#83 = ORIENTED_EDGE ( 'NONE', *, *, #173, .T. ) ;
#84 = FILL_AREA_STYLE_COLOUR ( '', #78 ) ;
#85 = CARTESIAN_POINT ( 'NONE',  ( -17.50000000000000000, 0.0000000000000000000, 9.250000000000001800 ) ) ;
#86 = DIRECTION ( 'NONE',  ( -1.000000000000000000, -0.0000000000000000000, -0.0000000000000000000 ) ) ;
#87 = CARTESIAN_POINT ( 'NONE',  ( 17.50000000000000000, 0.0000000000000000000, 7.000000000000000000 ) ) ;
#88 = VERTEX_POINT ( 'NONE', #34 ) ;
#89 = ADVANCED_FACE ( 'NONE', ( #6 ), #103, .T. ) ;
#90 = FILL_AREA_STYLE ('',( #157 ) ) ;
#91 = VECTOR ( 'NONE', #199, 1000.000000000000000 ) ;
#92 = CLOSED_SHELL ( 'NONE', ( #89, #154, #2, #166, #69, #20 ) ) ;
#93 = CARTESIAN_POINT ( 'NONE',  ( -17.50000000000000000, 0.0000000000000000000, 0.0000000000000000000 ) ) ;
#94 =( GEOMETRIC_REPRESENTATION_CONTEXT ( 3 ) GLOBAL_UNCERTAINTY_ASSIGNED_CONTEXT ( ( #147 ) ) GLOBAL_UNIT_ASSIGNED_CONTEXT ( ( #194, #37, #153 ) ) REPRESENTATION_CONTEXT ( 'NONE', 'WORKASPACE' ) );
#95 = CIRCLE ( 'NONE', #207, 7.000000000000000000 ) ;
#96 =( NAMED_UNIT ( * ) SI_UNIT ( $, .STERADIAN. ) SOLID_ANGLE_UNIT ( ) );
#97 = VERTEX_POINT ( 'NONE', #87 ) ;
#98 = AXIS2_PLACEMENT_3D ( 'NONE', #80, #99, #82 ) ;
#99 = DIRECTION ( 'NONE',  ( -1.000000000000000000, -0.0000000000000000000, -0.0000000000000000000 ) ) ;
#100 = PLANE ( 'NONE',  #110 ) ;
#101 = EDGE_LOOP ( 'NONE', ( #189, #56 ) ) ;
#102 = CARTESIAN_POINT ( 'NONE',  ( -17.50000000000000000, 0.0000000000000000000, 0.0000000000000000000 ) ) ;
#103 = CYLINDRICAL_SURFACE ( 'NONE', #44, 9.250000000000001800 ) ;
#104 = DIRECTION ( 'NONE',  ( 0.0000000000000000000, 0.0000000000000000000, 1.000000000000000000 ) ) ;
#105 = DIRECTION ( 'NONE',  ( -1.000000000000000000, 0.0000000000000000000, -0.0000000000000000000 ) ) ;
#106 = DIRECTION ( 'NONE',  ( -1.000000000000000000, -0.0000000000000000000, -0.0000000000000000000 ) ) ;
#107 = CIRCLE ( 'NONE', #36, 9.250000000000001800 ) ;
#108 = SURFACE_STYLE_USAGE ( .BOTH. , #204 ) ;
#109 = SHAPE_DEFINITION_REPRESENTATION ( #39, #111 ) ;
#110 = AXIS2_PLACEMENT_3D ( 'NONE', #177, #192, #196 ) ;
#111 = ADVANCED_BREP_SHAPE_REPRESENTATION ( '2046052', ( #7, #175 ), #94 ) ;
#112 = VECTOR ( 'NONE', #151, 1000.000000000000000 ) ;
#113 = FACE_BOUND ( 'NONE', #4, .T. ) ;
#114 = STYLED_ITEM ( 'NONE', ( #145 ), #111 ) ;
#115 = DIRECTION ( 'NONE',  ( 0.0000000000000000000, 0.0000000000000000000, 1.000000000000000000 ) ) ;
#116 = CARTESIAN_POINT ( 'NONE',  ( 17.50000000000000000, 8.572527594031473200E-016, -7.000000000000000000 ) ) ;
#117 = CIRCLE ( 'NONE', #158, 7.000000000000000000 ) ;
#118 = DIRECTION ( 'NONE',  ( 0.0000000000000000000, 0.0000000000000000000, 1.000000000000000000 ) ) ;
#119 = STYLED_ITEM ( 'NONE', ( #137 ), #7 ) ;
#120 = CARTESIAN_POINT ( 'NONE',  ( -17.50000000000000000, 0.0000000000000000000, 9.250000000000001800 ) ) ;
#121 = ORIENTED_EDGE ( 'NONE', *, *, #5, .F. ) ;
#122 = DIRECTION ( 'NONE',  ( -1.000000000000000000, -0.0000000000000000000, -0.0000000000000000000 ) ) ;
#123 =( NAMED_UNIT ( * ) PLANE_ANGLE_UNIT ( ) SI_UNIT ( $, .RADIAN. ) );
#124 = EDGE_LOOP ( 'NONE', ( #174, #83, #58, #13 ) ) ;
#125 = PRESENTATION_LAYER_ASSIGNMENT (  '', '', ( #114 ) ) ;
#126 = PRESENTATION_LAYER_ASSIGNMENT (  '', '', ( #119 ) ) ;
#127 = DIRECTION ( 'NONE',  ( -1.000000000000000000, -0.0000000000000000000, -0.0000000000000000000 ) ) ;
#128 = EDGE_LOOP ( 'NONE', ( #30, #155, #134, #133 ) ) ;
#129 = DIRECTION ( 'NONE',  ( -1.000000000000000000, -0.0000000000000000000, -0.0000000000000000000 ) ) ;
#130 = PRODUCT_DEFINITION_CONTEXT ( 'detailed design', #168, 'design' ) ;
#131 = CARTESIAN_POINT ( 'NONE',  ( -17.50000000000000000, 0.0000000000000000000, 7.000000000000000000 ) ) ;
#132 = PLANE ( 'NONE',  #26 ) ;
#133 = ORIENTED_EDGE ( 'NONE', *, *, #16, .T. ) ;
#134 = ORIENTED_EDGE ( 'NONE', *, *, #42, .T. ) ;
#135 = PRODUCT ( '2046052', '2046052', '', ( #52 ) ) ;
#136 = MECHANICAL_DESIGN_GEOMETRIC_PRESENTATION_REPRESENTATION (  '', ( #114 ), #144 ) ;
#137 = PRESENTATION_STYLE_ASSIGNMENT (( #77 ) ) ;
#138 = ORIENTED_EDGE ( 'NONE', *, *, #173, .F. ) ;
#139 = MECHANICAL_DESIGN_GEOMETRIC_PRESENTATION_REPRESENTATION (  '', ( #119 ), #152 ) ;
#140 = VECTOR ( 'NONE', #129, 1000.000000000000000 ) ;
#141 = CARTESIAN_POINT ( 'NONE',  ( 17.50000000000000000, 1.132798289211301900E-015, -9.250000000000001800 ) ) ;
#142 = DIRECTION ( 'NONE',  ( 0.0000000000000000000, 0.0000000000000000000, 1.000000000000000000 ) ) ;
#143 = CIRCLE ( 'NONE', #79, 7.000000000000000000 ) ;
#144 =( GEOMETRIC_REPRESENTATION_CONTEXT ( 3 ) GLOBAL_UNCERTAINTY_ASSIGNED_CONTEXT ( ( #71 ) ) GLOBAL_UNIT_ASSIGNED_CONTEXT ( ( #3, #123, #23 ) ) REPRESENTATION_CONTEXT ( 'NONE', 'WORKASPACE' ) );
#145 = PRESENTATION_STYLE_ASSIGNMENT (( #108 ) ) ;
#146 = DIRECTION ( 'NONE',  ( -1.000000000000000000, -0.0000000000000000000, -0.0000000000000000000 ) ) ;
#147 = UNCERTAINTY_MEASURE_WITH_UNIT (LENGTH_MEASURE( 1.000000000000000100E-005 ), #194, 'distance_accuracy_value', 'NONE');
#148 =( LENGTH_UNIT ( ) NAMED_UNIT ( * ) SI_UNIT ( .MILLI., .METRE. ) );
#149 = ORIENTED_EDGE ( 'NONE', *, *, #209, .F. ) ;
#150 = DIRECTION ( 'NONE',  ( -1.000000000000000000, -0.0000000000000000000, -0.0000000000000000000 ) ) ;
#151 = DIRECTION ( 'NONE',  ( -1.000000000000000000, -0.0000000000000000000, -0.0000000000000000000 ) ) ;
#152 =( GEOMETRIC_REPRESENTATION_CONTEXT ( 3 ) GLOBAL_UNCERTAINTY_ASSIGNED_CONTEXT ( ( #185 ) ) GLOBAL_UNIT_ASSIGNED_CONTEXT ( ( #148, #160, #96 ) ) REPRESENTATION_CONTEXT ( 'NONE', 'WORKASPACE' ) );
#153 =( NAMED_UNIT ( * ) SI_UNIT ( $, .STERADIAN. ) SOLID_ANGLE_UNIT ( ) );
#154 = ADVANCED_FACE ( 'NONE', ( #203 ), #54, .F. ) ;
#155 = ORIENTED_EDGE ( 'NONE', *, *, #59, .F. ) ;
#156 = DIRECTION ( 'NONE',  ( 1.000000000000000000, 0.0000000000000000000, 0.0000000000000000000 ) ) ;
#157 = FILL_AREA_STYLE_COLOUR ( '', #29 ) ;
#158 = AXIS2_PLACEMENT_3D ( 'NONE', #102, #197, #104 ) ;
#159 = SURFACE_SIDE_STYLE ('',( #193 ) ) ;
#160 =( NAMED_UNIT ( * ) PLANE_ANGLE_UNIT ( ) SI_UNIT ( $, .RADIAN. ) );
#161 = FACE_OUTER_BOUND ( 'NONE', #63, .T. ) ;
#162 = CARTESIAN_POINT ( 'NONE',  ( -17.50000000000000000, 0.0000000000000000000, 0.0000000000000000000 ) ) ;
#163 = EDGE_CURVE ( 'NONE', #172, #43, #202, .T. ) ;
#164 = CYLINDRICAL_SURFACE ( 'NONE', #68, 7.000000000000000000 ) ;
#165 = CARTESIAN_POINT ( 'NONE',  ( 17.50000000000000000, 9.250000000000001800, 0.0000000000000000000 ) ) ;
#166 = ADVANCED_FACE ( 'NONE', ( #11 ), #164, .F. ) ;
#167 = APPLICATION_PROTOCOL_DEFINITION ( 'draft international standard', 'automotive_design', 1998, #184 ) ;
#168 = APPLICATION_CONTEXT ( 'automotive_design' ) ;
#169 = DIRECTION ( 'NONE',  ( 0.0000000000000000000, 0.0000000000000000000, 1.000000000000000000 ) ) ;
#170 = AXIS2_PLACEMENT_3D ( 'NONE', #33, #150, #48 ) ;
#171 = DIRECTION ( 'NONE',  ( -1.000000000000000000, -0.0000000000000000000, -0.0000000000000000000 ) ) ;
#172 = VERTEX_POINT ( 'NONE', #81 ) ;
#173 = EDGE_CURVE ( 'NONE', #213, #88, #183, .T. ) ;
#174 = ORIENTED_EDGE ( 'NONE', *, *, #200, .T. ) ;
#175 = AXIS2_PLACEMENT_3D ( 'NONE', #60, #38, #156 ) ;
#176 = ORIENTED_EDGE ( 'NONE', *, *, #209, .T. ) ;
#177 = CARTESIAN_POINT ( 'NONE',  ( -17.50000000000000000, 9.250000000000001800, 0.0000000000000000000 ) ) ;
#178 = DIRECTION ( 'NONE',  ( 0.0000000000000000000, 0.0000000000000000000, 1.000000000000000000 ) ) ;
#179 = CARTESIAN_POINT ( 'NONE',  ( 17.50000000000000000, 0.0000000000000000000, 0.0000000000000000000 ) ) ;
#180 = EDGE_LOOP ( 'NONE', ( #15, #25 ) ) ;
#181 = CARTESIAN_POINT ( 'NONE',  ( -17.50000000000000000, 0.0000000000000000000, 0.0000000000000000000 ) ) ;
#182 = AXIS2_PLACEMENT_3D ( 'NONE', #162, #62, #178 ) ;
#183 = LINE ( 'NONE', #210, #140 ) ;
#184 = APPLICATION_CONTEXT ( 'automotive_design' ) ;
#185 = UNCERTAINTY_MEASURE_WITH_UNIT (LENGTH_MEASURE( 1.000000000000000100E-005 ), #148, 'distance_accuracy_value', 'NONE');
#186 = CIRCLE ( 'NONE', #12, 9.250000000000001800 ) ;
#187 = EDGE_CURVE ( 'NONE', #43, #88, #107, .T. ) ;
#188 = EDGE_LOOP ( 'NONE', ( #35, #32 ) ) ;
#189 = ORIENTED_EDGE ( 'NONE', *, *, #187, .T. ) ;
#190 = PRODUCT_DEFINITION ( 'UNKNOWN', '', #205, #130 ) ;
#191 = AXIS2_PLACEMENT_3D ( 'NONE', #31, #127, #142 ) ;
#192 = DIRECTION ( 'NONE',  ( 1.000000000000000000, 0.0000000000000000000, 0.0000000000000000000 ) ) ;
#193 = SURFACE_STYLE_FILL_AREA ( #45 ) ;
#194 =( LENGTH_UNIT ( ) NAMED_UNIT ( * ) SI_UNIT ( .MILLI., .METRE. ) );
#195 = CARTESIAN_POINT ( 'NONE',  ( -17.50000000000000000, 0.0000000000000000000, 0.0000000000000000000 ) ) ;
#196 = DIRECTION ( 'NONE',  ( 0.0000000000000000000, 0.0000000000000000000, -1.000000000000000000 ) ) ;
#197 = DIRECTION ( 'NONE',  ( -1.000000000000000000, -0.0000000000000000000, -0.0000000000000000000 ) ) ;
#198 = FACE_OUTER_BOUND ( 'NONE', #101, .T. ) ;
#199 = DIRECTION ( 'NONE',  ( -1.000000000000000000, -0.0000000000000000000, -0.0000000000000000000 ) ) ;
#200 = EDGE_CURVE ( 'NONE', #172, #213, #186, .T. ) ;
#201 = DIRECTION ( 'NONE',  ( 0.0000000000000000000, 0.0000000000000000000, 1.000000000000000000 ) ) ;
#202 = LINE ( 'NONE', #120, #66 ) ;
#203 = FACE_OUTER_BOUND ( 'NONE', #73, .T. ) ;
#204 = SURFACE_SIDE_STYLE ('',( #21 ) ) ;
#205 = PRODUCT_DEFINITION_FORMATION_WITH_SPECIFIED_SOURCE ( 'ANY', '', #135, .NOT_KNOWN. ) ;
#206 = ORIENTED_EDGE ( 'NONE', *, *, #42, .F. ) ;
#207 = AXIS2_PLACEMENT_3D ( 'NONE', #179, #86, #201 ) ;
#208 = ORIENTED_EDGE ( 'NONE', *, *, #163, .T. ) ;
#209 = EDGE_CURVE ( 'NONE', #22, #97, #143, .T. ) ;
#210 = CARTESIAN_POINT ( 'NONE',  ( -17.50000000000000000, 1.132798289211301900E-015, -9.250000000000001800 ) ) ;
#211 = PRODUCT_RELATED_PRODUCT_CATEGORY ( 'part', '', ( #135 ) ) ;
#212 = DIRECTION ( 'NONE',  ( -0.0000000000000000000, 0.0000000000000000000, 1.000000000000000000 ) ) ;
#213 = VERTEX_POINT ( 'NONE', #141 ) ;
#214 = DIRECTION ( 'NONE',  ( -1.000000000000000000, -0.0000000000000000000, -0.0000000000000000000 ) ) ;
ENDSEC;
END-ISO-10303-21;
