ISO-10303-21;
HEADER;
FILE_DESCRIPTION (( 'STEP AP214' ),
    '1' );
FILE_NAME ('2046859.stp',
    '2023-09-08T12:01:56',
    ( '' ),
    ( '' ),
    'SwSTEP 2.0',
    'SolidWorks 2022',
    '' );
FILE_SCHEMA (( 'AUTOMOTIVE_DESIGN' ));
ENDSEC;

DATA;
#1 = CARTESIAN_POINT ( 'NONE',  ( 47.50000000000000000, 0.000000000000000000, 0.000000000000000000 ) ) ;
#2 = PRODUCT_RELATED_PRODUCT_CATEGORY ( 'part', '', ( #139 ) ) ;
#3 = ORIENTED_EDGE ( 'NONE', *, *, #55, .T. ) ;
#4 = DIRECTION ( 'NONE',  ( -1.000000000000000000, -0.000000000000000000, -0.000000000000000000 ) ) ;
#5 =( GEOMETRIC_REPRESENTATION_CONTEXT ( 3 ) GLOBAL_UNCERTAINTY_ASSIGNED_CONTEXT ( ( #54 ) ) GLOBAL_UNIT_ASSIGNED_CONTEXT ( ( #74, #120, #77 ) ) REPRESENTATION_CONTEXT ( 'NONE', 'WORKASPACE' ) );
#6 = AXIS2_PLACEMENT_3D ( 'NONE', #198, #177, #112 ) ;
#7 = SURFACE_STYLE_FILL_AREA ( #150 ) ;
#8 = ADVANCED_BREP_SHAPE_REPRESENTATION ( '2046859', ( #167, #202 ), #30 ) ;
#9 = COLOUR_RGB ( '',0.7921568627450980005, 0.8196078431372548767, 0.9333333333333333481 ) ;
#10 = CARTESIAN_POINT ( 'NONE',  ( -47.50000000000000000, 0.000000000000000000, 0.000000000000000000 ) ) ;
#11 = CYLINDRICAL_SURFACE ( 'NONE', #16, 25.50000000000000355 ) ;
#12 = FILL_AREA_STYLE_COLOUR ( '', #9 ) ;
#13 = AXIS2_PLACEMENT_3D ( 'NONE', #72, #114, #183 ) ;
#14 = CARTESIAN_POINT ( 'NONE',  ( 2.236067977499787141, 0.000000000000000000, 25.50000000000000355 ) ) ;
#15 = ORIENTED_EDGE ( 'NONE', *, *, #48, .F. ) ;
#16 = AXIS2_PLACEMENT_3D ( 'NONE', #119, #94, #209 ) ;
#17 = EDGE_CURVE ( 'NONE', #29, #29, #105, .T. ) ;
#18 = DIRECTION ( 'NONE',  ( 0.000000000000000000, 0.000000000000000000, 1.000000000000000000 ) ) ;
#19 = SURFACE_STYLE_USAGE ( .BOTH. , #145 ) ;
#20 = DIRECTION ( 'NONE',  ( -1.000000000000000000, -0.000000000000000000, -0.000000000000000000 ) ) ;
#21 =( NAMED_UNIT ( * ) SI_UNIT ( $, .STERADIAN. ) SOLID_ANGLE_UNIT ( ) );
#22 = UNCERTAINTY_MEASURE_WITH_UNIT (LENGTH_MEASURE( 1.000000000000000082E-05 ), #109, 'distance_accuracy_value', 'NONE');
#23 = FACE_OUTER_BOUND ( 'NONE', #61, .T. ) ;
#24 = FILL_AREA_STYLE_COLOUR ( '', #208 ) ;
#25 = AXIS2_PLACEMENT_3D ( 'NONE', #103, #76, #173 ) ;
#26 = CARTESIAN_POINT ( 'NONE',  ( -1.414213562373093591, 0.000000000000000000, 0.000000000000000000 ) ) ;
#27 = FACE_OUTER_BOUND ( 'NONE', #32, .T. ) ;
#28 = ADVANCED_FACE ( 'NONE', ( #56, #164 ), #37, .F. ) ;
#29 = VERTEX_POINT ( 'NONE', #153 ) ;
#30 =( GEOMETRIC_REPRESENTATION_CONTEXT ( 3 ) GLOBAL_UNCERTAINTY_ASSIGNED_CONTEXT ( ( #22 ) ) GLOBAL_UNIT_ASSIGNED_CONTEXT ( ( #109, #212, #206 ) ) REPRESENTATION_CONTEXT ( 'NONE', 'WORKASPACE' ) );
#31 = PLANE ( 'NONE',  #90 ) ;
#32 = EDGE_LOOP ( 'NONE', ( #50 ) ) ;
#33 = ADVANCED_FACE ( 'NONE', ( #160, #23 ), #40, .T. ) ;
#34 = CARTESIAN_POINT ( 'NONE',  ( -17.47792894757627025, 0.000000000000000000, 0.000000000000000000 ) ) ;
#35 = CIRCLE ( 'NONE', #197, 25.50000000000000355 ) ;
#36 = CARTESIAN_POINT ( 'NONE',  ( -2.236067977499788917, 0.000000000000000000, 0.000000000000000000 ) ) ;
#37 = TOROIDAL_SURFACE ( 'NONE', #169, 27.50000000000000355, 1.500000000000000000 ) ;
#38 = CYLINDRICAL_SURFACE ( 'NONE', #149, 26.99999999999999645 ) ;
#39 = PRESENTATION_STYLE_ASSIGNMENT (( #184 ) ) ;
#40 = TOROIDAL_SURFACE ( 'NONE', #6, 27.50000000000000355, 3.000000000000000000 ) ;
#41 = VERTEX_POINT ( 'NONE', #140 ) ;
#42 = ORIENTED_EDGE ( 'NONE', *, *, #118, .T. ) ;
#43 = VERTEX_POINT ( 'NONE', #46 ) ;
#44 = AXIS2_PLACEMENT_3D ( 'NONE', #26, #51, #84 ) ;
#45 = CARTESIAN_POINT ( 'NONE',  ( -1.414213562373093591, 0.000000000000000000, 27.00000000000000000 ) ) ;
#46 = CARTESIAN_POINT ( 'NONE',  ( -47.50000000000000000, 0.000000000000000000, 26.99999999999999645 ) ) ;
#47 = EDGE_LOOP ( 'NONE', ( #15 ) ) ;
#48 = EDGE_CURVE ( 'NONE', #191, #191, #151, .T. ) ;
#49 = SHAPE_DEFINITION_REPRESENTATION ( #200, #8 ) ;
#50 = ORIENTED_EDGE ( 'NONE', *, *, #85, .T. ) ;
#51 = DIRECTION ( 'NONE',  ( -1.000000000000000000, -0.000000000000000000, -0.000000000000000000 ) ) ;
#52 = DIRECTION ( 'NONE',  ( -1.000000000000000000, -0.000000000000000000, -0.000000000000000000 ) ) ;
#53 = AXIS2_PLACEMENT_3D ( 'NONE', #1, #4, #179 ) ;
#54 = UNCERTAINTY_MEASURE_WITH_UNIT (LENGTH_MEASURE( 1.000000000000000082E-05 ), #74, 'distance_accuracy_value', 'NONE');
#55 = EDGE_CURVE ( 'NONE', #171, #171, #88, .T. ) ;
#56 = FACE_OUTER_BOUND ( 'NONE', #158, .T. ) ;
#57 = FACE_OUTER_BOUND ( 'NONE', #176, .T. ) ;
#58 = DIRECTION ( 'NONE',  ( -1.000000000000000000, -0.000000000000000000, -0.000000000000000000 ) ) ;
#59 = VERTEX_POINT ( 'NONE', #187 ) ;
#60 = PRESENTATION_LAYER_ASSIGNMENT (  '', '', ( #189 ) ) ;
#61 = EDGE_LOOP ( 'NONE', ( #172 ) ) ;
#62 = FACE_BOUND ( 'NONE', #124, .T. ) ;
#63 = AXIS2_PLACEMENT_3D ( 'NONE', #204, #166, #87 ) ;
#64 = PRESENTATION_LAYER_ASSIGNMENT (  '', '', ( #152 ) ) ;
#65 = EDGE_LOOP ( 'NONE', ( #122 ) ) ;
#66 = PRESENTATION_STYLE_ASSIGNMENT (( #19 ) ) ;
#67 = ORIENTED_EDGE ( 'NONE', *, *, #143, .T. ) ;
#68 = CARTESIAN_POINT ( 'NONE',  ( 1.414213562373093591, 0.000000000000000000, 0.000000000000000000 ) ) ;
#69 = DIRECTION ( 'NONE',  ( 0.000000000000000000, 0.000000000000000000, 1.000000000000000000 ) ) ;
#70 = ADVANCED_FACE ( 'NONE', ( #113, #129 ), #38, .T. ) ;
#71 = AXIS2_PLACEMENT_3D ( 'NONE', #115, #101, #89 ) ;
#72 = CARTESIAN_POINT ( 'NONE',  ( 47.50000000000000000, 26.99999999999999645, 0.000000000000000000 ) ) ;
#73 = SURFACE_SIDE_STYLE ('',( #7 ) ) ;
#74 =( LENGTH_UNIT ( ) NAMED_UNIT ( * ) SI_UNIT ( .MILLI., .METRE. ) );
#75 = CARTESIAN_POINT ( 'NONE',  ( 47.50000000000000000, 0.000000000000000000, 26.99999999999999645 ) ) ;
#76 = DIRECTION ( 'NONE',  ( -1.000000000000000000, -0.000000000000000000, -0.000000000000000000 ) ) ;
#77 =( NAMED_UNIT ( * ) SI_UNIT ( $, .STERADIAN. ) SOLID_ANGLE_UNIT ( ) );
#78 = ORIENTED_EDGE ( 'NONE', *, *, #17, .F. ) ;
#79 = DIRECTION ( 'NONE',  ( 0.000000000000000000, 0.000000000000000000, -1.000000000000000000 ) ) ;
#80 = AXIS2_PLACEMENT_3D ( 'NONE', #196, #20, #69 ) ;
#81 = ORIENTED_EDGE ( 'NONE', *, *, #143, .F. ) ;
#82 = EDGE_LOOP ( 'NONE', ( #81 ) ) ;
#83 =( GEOMETRIC_REPRESENTATION_CONTEXT ( 3 ) GLOBAL_UNCERTAINTY_ASSIGNED_CONTEXT ( ( #181 ) ) GLOBAL_UNIT_ASSIGNED_CONTEXT ( ( #147, #163, #21 ) ) REPRESENTATION_CONTEXT ( 'NONE', 'WORKASPACE' ) );
#84 = DIRECTION ( 'NONE',  ( 0.000000000000000000, 0.000000000000000000, 1.000000000000000000 ) ) ;
#85 = EDGE_CURVE ( 'NONE', #154, #154, #121, .T. ) ;
#86 = FACE_BOUND ( 'NONE', #127, .T. ) ;
#87 = DIRECTION ( 'NONE',  ( 0.000000000000000000, 0.000000000000000000, 1.000000000000000000 ) ) ;
#88 = CIRCLE ( 'NONE', #210, 27.00000000000000000 ) ;
#89 = DIRECTION ( 'NONE',  ( 0.000000000000000000, 0.000000000000000000, 1.000000000000000000 ) ) ;
#90 = AXIS2_PLACEMENT_3D ( 'NONE', #190, #91, #79 ) ;
#91 = DIRECTION ( 'NONE',  ( 1.000000000000000000, 0.000000000000000000, 0.000000000000000000 ) ) ;
#92 = EDGE_CURVE ( 'NONE', #41, #41, #178, .T. ) ;
#93 = EDGE_LOOP ( 'NONE', ( #214 ) ) ;
#94 = DIRECTION ( 'NONE',  ( -1.000000000000000000, -0.000000000000000000, -0.000000000000000000 ) ) ;
#95 = PRODUCT_CONTEXT ( 'NONE', #117, 'mechanical' ) ;
#96 = ORIENTED_EDGE ( 'NONE', *, *, #85, .F. ) ;
#97 = APPLICATION_PROTOCOL_DEFINITION ( 'draft international standard', 'automotive_design', 1998, #131 ) ;
#98 = DIRECTION ( 'NONE',  ( -1.000000000000000000, -0.000000000000000000, -0.000000000000000000 ) ) ;
#99 = CLOSED_SHELL ( 'NONE', ( #28, #199, #207, #102, #33, #182, #165, #70 ) ) ;
#100 = CARTESIAN_POINT ( 'NONE',  ( 0.000000000000000000, 0.000000000000000000, 0.000000000000000000 ) ) ;
#101 = DIRECTION ( 'NONE',  ( -1.000000000000000000, -0.000000000000000000, -0.000000000000000000 ) ) ;
#102 = ADVANCED_FACE ( 'NONE', ( #161, #57 ), #133, .F. ) ;
#103 = CARTESIAN_POINT ( 'NONE',  ( 2.236067977499787141, 0.000000000000000000, 0.000000000000000000 ) ) ;
#104 = CIRCLE ( 'NONE', #71, 26.99999999999999645 ) ;
#105 = CIRCLE ( 'NONE', #53, 25.50000000000000355 ) ;
#106 = DIRECTION ( 'NONE',  ( 0.000000000000000000, 0.000000000000000000, 1.000000000000000000 ) ) ;
#107 = VERTEX_POINT ( 'NONE', #14 ) ;
#108 = CARTESIAN_POINT ( 'NONE',  ( -17.47792894757627025, 0.000000000000000000, 0.000000000000000000 ) ) ;
#109 =( LENGTH_UNIT ( ) NAMED_UNIT ( * ) SI_UNIT ( .MILLI., .METRE. ) );
#110 = EDGE_LOOP ( 'NONE', ( #67 ) ) ;
#111 = EDGE_LOOP ( 'NONE', ( #157 ) ) ;
#112 = DIRECTION ( 'NONE',  ( 0.000000000000000000, 0.000000000000000000, 1.000000000000000000 ) ) ;
#113 = FACE_OUTER_BOUND ( 'NONE', #111, .T. ) ;
#114 = DIRECTION ( 'NONE',  ( -1.000000000000000000, 0.000000000000000000, -0.000000000000000000 ) ) ;
#115 = CARTESIAN_POINT ( 'NONE',  ( -47.50000000000000000, 0.000000000000000000, 0.000000000000000000 ) ) ;
#116 = EDGE_LOOP ( 'NONE', ( #155 ) ) ;
#117 = APPLICATION_CONTEXT ( 'automotive_design' ) ;
#118 = EDGE_CURVE ( 'NONE', #59, #59, #35, .T. ) ;
#119 = CARTESIAN_POINT ( 'NONE',  ( -17.47792894757627025, 0.000000000000000000, 0.000000000000000000 ) ) ;
#120 =( NAMED_UNIT ( * ) PLANE_ANGLE_UNIT ( ) SI_UNIT ( $, .RADIAN. ) );
#121 = CIRCLE ( 'NONE', #44, 27.00000000000000000 ) ;
#122 = ORIENTED_EDGE ( 'NONE', *, *, #175, .T. ) ;
#123 = FACE_OUTER_BOUND ( 'NONE', #110, .T. ) ;
#124 = EDGE_LOOP ( 'NONE', ( #186 ) ) ;
#125 = CARTESIAN_POINT ( 'NONE',  ( 0.000000000000000000, 0.000000000000000000, 0.000000000000000000 ) ) ;
#126 = DIRECTION ( 'NONE',  ( 1.000000000000000000, 0.000000000000000000, 0.000000000000000000 ) ) ;
#127 = EDGE_LOOP ( 'NONE', ( #195 ) ) ;
#128 = DIRECTION ( 'NONE',  ( 0.000000000000000000, 0.000000000000000000, 1.000000000000000000 ) ) ;
#129 = FACE_OUTER_BOUND ( 'NONE', #116, .T. ) ;
#130 = MECHANICAL_DESIGN_GEOMETRIC_PRESENTATION_REPRESENTATION (  '', ( #189 ), #5 ) ;
#131 = APPLICATION_CONTEXT ( 'automotive_design' ) ;
#132 = PRODUCT_DEFINITION_CONTEXT ( 'detailed design', #131, 'design' ) ;
#133 = CYLINDRICAL_SURFACE ( 'NONE', #80, 25.50000000000000355 ) ;
#134 = DIRECTION ( 'NONE',  ( 0.000000000000000000, 0.000000000000000000, 1.000000000000000000 ) ) ;
#135 = DIRECTION ( 'NONE',  ( -1.000000000000000000, -0.000000000000000000, -0.000000000000000000 ) ) ;
#136 = CARTESIAN_POINT ( 'NONE',  ( 1.414213562373093591, 0.000000000000000000, 27.00000000000000000 ) ) ;
#137 = APPLICATION_PROTOCOL_DEFINITION ( 'draft international standard', 'automotive_design', 1998, #117 ) ;
#138 = FILL_AREA_STYLE ('',( #12 ) ) ;
#139 = PRODUCT ( '2046859', '2046859', '', ( #95 ) ) ;
#140 = CARTESIAN_POINT ( 'NONE',  ( -2.236067977499788917, 0.000000000000000000, 25.50000000000000355 ) ) ;
#141 = PRODUCT_DEFINITION ( 'UNKNOWN', '', #162, #132 ) ;
#142 = EDGE_LOOP ( 'NONE', ( #3 ) ) ;
#143 = EDGE_CURVE ( 'NONE', #43, #43, #104, .T. ) ;
#144 = MECHANICAL_DESIGN_GEOMETRIC_PRESENTATION_REPRESENTATION (  '', ( #152 ), #83 ) ;
#145 = SURFACE_SIDE_STYLE ('',( #174 ) ) ;
#146 = DIRECTION ( 'NONE',  ( -1.000000000000000000, -0.000000000000000000, -0.000000000000000000 ) ) ;
#147 =( LENGTH_UNIT ( ) NAMED_UNIT ( * ) SI_UNIT ( .MILLI., .METRE. ) );
#148 = PLANE ( 'NONE',  #13 ) ;
#149 = AXIS2_PLACEMENT_3D ( 'NONE', #34, #146, #128 ) ;
#150 = FILL_AREA_STYLE ('',( #24 ) ) ;
#151 = CIRCLE ( 'NONE', #63, 26.99999999999999645 ) ;
#152 = STYLED_ITEM ( 'NONE', ( #66 ), #8 ) ;
#153 = CARTESIAN_POINT ( 'NONE',  ( 47.50000000000000000, 0.000000000000000000, 25.50000000000000355 ) ) ;
#154 = VERTEX_POINT ( 'NONE', #45 ) ;
#155 = ORIENTED_EDGE ( 'NONE', *, *, #48, .T. ) ;
#156 = DIRECTION ( 'NONE',  ( -1.000000000000000000, -0.000000000000000000, -0.000000000000000000 ) ) ;
#157 = ORIENTED_EDGE ( 'NONE', *, *, #55, .F. ) ;
#158 = EDGE_LOOP ( 'NONE', ( #96 ) ) ;
#159 = AXIS2_PLACEMENT_3D ( 'NONE', #36, #135, #134 ) ;
#160 = FACE_OUTER_BOUND ( 'NONE', #93, .T. ) ;
#161 = FACE_OUTER_BOUND ( 'NONE', #194, .T. ) ;
#162 = PRODUCT_DEFINITION_FORMATION_WITH_SPECIFIED_SOURCE ( 'ANY', '', #139, .NOT_KNOWN. ) ;
#163 =( NAMED_UNIT ( * ) PLANE_ANGLE_UNIT ( ) SI_UNIT ( $, .RADIAN. ) );
#164 = FACE_OUTER_BOUND ( 'NONE', #142, .T. ) ;
#165 = ADVANCED_FACE ( 'NONE', ( #201, #86 ), #148, .F. ) ;
#166 = DIRECTION ( 'NONE',  ( -1.000000000000000000, -0.000000000000000000, -0.000000000000000000 ) ) ;
#167 = MANIFOLD_SOLID_BREP ( 'Rotation', #99 ) ;
#168 = CIRCLE ( 'NONE', #25, 25.50000000000000355 ) ;
#169 = AXIS2_PLACEMENT_3D ( 'NONE', #100, #98, #18 ) ;
#170 = FACE_OUTER_BOUND ( 'NONE', #65, .T. ) ;
#171 = VERTEX_POINT ( 'NONE', #136 ) ;
#172 = ORIENTED_EDGE ( 'NONE', *, *, #92, .T. ) ;
#173 = DIRECTION ( 'NONE',  ( 0.000000000000000000, 0.000000000000000000, 1.000000000000000000 ) ) ;
#174 = SURFACE_STYLE_FILL_AREA ( #138 ) ;
#175 = EDGE_CURVE ( 'NONE', #107, #107, #168, .T. ) ;
#176 = EDGE_LOOP ( 'NONE', ( #42 ) ) ;
#177 = DIRECTION ( 'NONE',  ( -1.000000000000000000, -0.000000000000000000, -0.000000000000000000 ) ) ;
#178 = CIRCLE ( 'NONE', #159, 25.50000000000000355 ) ;
#179 = DIRECTION ( 'NONE',  ( 0.000000000000000000, 0.000000000000000000, 1.000000000000000000 ) ) ;
#180 = DIRECTION ( 'NONE',  ( 0.000000000000000000, 0.000000000000000000, 1.000000000000000000 ) ) ;
#181 = UNCERTAINTY_MEASURE_WITH_UNIT (LENGTH_MEASURE( 1.000000000000000082E-05 ), #147, 'distance_accuracy_value', 'NONE');
#182 = ADVANCED_FACE ( 'NONE', ( #188, #170 ), #11, .F. ) ;
#183 = DIRECTION ( 'NONE',  ( -0.000000000000000000, 0.000000000000000000, 1.000000000000000000 ) ) ;
#184 = SURFACE_STYLE_USAGE ( .BOTH. , #73 ) ;
#185 = CYLINDRICAL_SURFACE ( 'NONE', #213, 26.99999999999999645 ) ;
#186 = ORIENTED_EDGE ( 'NONE', *, *, #118, .F. ) ;
#187 = CARTESIAN_POINT ( 'NONE',  ( -47.50000000000000000, 0.000000000000000000, 25.50000000000000355 ) ) ;
#188 = FACE_OUTER_BOUND ( 'NONE', #211, .T. ) ;
#189 = STYLED_ITEM ( 'NONE', ( #39 ), #167 ) ;
#190 = CARTESIAN_POINT ( 'NONE',  ( -47.50000000000000000, 26.99999999999999645, 0.000000000000000000 ) ) ;
#191 = VERTEX_POINT ( 'NONE', #75 ) ;
#192 = ORIENTED_EDGE ( 'NONE', *, *, #92, .F. ) ;
#193 = DIRECTION ( 'NONE',  ( 0.000000000000000000, 0.000000000000000000, 1.000000000000000000 ) ) ;
#194 = EDGE_LOOP ( 'NONE', ( #192 ) ) ;
#195 = ORIENTED_EDGE ( 'NONE', *, *, #17, .T. ) ;
#196 = CARTESIAN_POINT ( 'NONE',  ( -17.47792894757627025, 0.000000000000000000, 0.000000000000000000 ) ) ;
#197 = AXIS2_PLACEMENT_3D ( 'NONE', #10, #52, #180 ) ;
#198 = CARTESIAN_POINT ( 'NONE',  ( 0.000000000000000000, 0.000000000000000000, 0.000000000000000000 ) ) ;
#199 = ADVANCED_FACE ( 'NONE', ( #205, #27 ), #185, .T. ) ;
#200 = PRODUCT_DEFINITION_SHAPE ( 'NONE', 'NONE',  #141 ) ;
#201 = FACE_OUTER_BOUND ( 'NONE', #47, .T. ) ;
#202 = AXIS2_PLACEMENT_3D ( 'NONE', #125, #193, #126 ) ;
#203 = DIRECTION ( 'NONE',  ( 0.000000000000000000, 0.000000000000000000, 1.000000000000000000 ) ) ;
#204 = CARTESIAN_POINT ( 'NONE',  ( 47.50000000000000000, 0.000000000000000000, 0.000000000000000000 ) ) ;
#205 = FACE_OUTER_BOUND ( 'NONE', #82, .T. ) ;
#206 =( NAMED_UNIT ( * ) SI_UNIT ( $, .STERADIAN. ) SOLID_ANGLE_UNIT ( ) );
#207 = ADVANCED_FACE ( 'NONE', ( #62, #123 ), #31, .F. ) ;
#208 = COLOUR_RGB ( '',0.7921568627450980005, 0.8196078431372548767, 0.9333333333333333481 ) ;
#209 = DIRECTION ( 'NONE',  ( 0.000000000000000000, 0.000000000000000000, 1.000000000000000000 ) ) ;
#210 = AXIS2_PLACEMENT_3D ( 'NONE', #68, #58, #203 ) ;
#211 = EDGE_LOOP ( 'NONE', ( #78 ) ) ;
#212 =( NAMED_UNIT ( * ) PLANE_ANGLE_UNIT ( ) SI_UNIT ( $, .RADIAN. ) );
#213 = AXIS2_PLACEMENT_3D ( 'NONE', #108, #156, #106 ) ;
#214 = ORIENTED_EDGE ( 'NONE', *, *, #175, .F. ) ;
ENDSEC;
END-ISO-10303-21;
