ISO-10303-21;
HEADER;
FILE_DESCRIPTION (( 'STEP AP214' ),
    '1' );
FILE_NAME ('3402314.stp',
    '2024-05-02T15:16:47',
    ( '' ),
    ( '' ),
    'SwSTEP 2.0',
    'SolidWorks 2022',
    '' );
FILE_SCHEMA (( 'AUTOMOTIVE_DESIGN' ));
ENDSEC;

DATA;
#1 = AXIS2_PLACEMENT_3D ( 'NONE', #100, #6, #93 ) ;
#2 = ORIENTED_EDGE ( 'NONE', *, *, #115, .T. ) ;
#3 = EDGE_LOOP ( 'NONE', ( #63 ) ) ;
#4 = CIRCLE ( 'NONE', #10, 8.000000000000000000 ) ;
#5 = PLANE ( 'NONE',  #1 ) ;
#6 = DIRECTION ( 'NONE',  ( 1.000000000000000000, 0.000000000000000000, 0.000000000000000000 ) ) ;
#7 = CARTESIAN_POINT ( 'NONE',  ( -34.92499999999994742, 0.000000000000000000, 0.000000000000000000 ) ) ;
#8 = DIRECTION ( 'NONE',  ( -1.000000000000000000, -0.000000000000000000, -0.000000000000000000 ) ) ;
#9 = CYLINDRICAL_SURFACE ( 'NONE', #28, 8.000000000000000000 ) ;
#10 = AXIS2_PLACEMENT_3D ( 'NONE', #77, #54, #107 ) ;
#11 = DIRECTION ( 'NONE',  ( 0.000000000000000000, 0.000000000000000000, 1.000000000000000000 ) ) ;
#12 = FACE_BOUND ( 'NONE', #37, .T. ) ;
#13 = FACE_BOUND ( 'NONE', #65, .T. ) ;
#14 = DIRECTION ( 'NONE',  ( -1.000000000000000000, 0.000000000000000000, -0.000000000000000000 ) ) ;
#15 = DIRECTION ( 'NONE',  ( 0.000000000000000000, 0.000000000000000000, 1.000000000000000000 ) ) ;
#16 = FILL_AREA_STYLE ('',( #41 ) ) ;
#17 = CARTESIAN_POINT ( 'NONE',  ( 0.000000000000000000, 0.000000000000000000, 0.000000000000000000 ) ) ;
#18 =( LENGTH_UNIT ( ) NAMED_UNIT ( * ) SI_UNIT ( .MILLI., .METRE. ) );
#19 = FILL_AREA_STYLE_COLOUR ( '', #66 ) ;
#20 = APPLICATION_PROTOCOL_DEFINITION ( 'draft international standard', 'automotive_design', 1998, #56 ) ;
#21 = ORIENTED_EDGE ( 'NONE', *, *, #33, .F. ) ;
#22 = AXIS2_PLACEMENT_3D ( 'NONE', #17, #11, #126 ) ;
#23 = PRODUCT ( '3402314', '3402314', '', ( #53 ) ) ;
#24 = STYLED_ITEM ( 'NONE', ( #103 ), #117 ) ;
#25 = FACE_OUTER_BOUND ( 'NONE', #64, .T. ) ;
#26 = DIRECTION ( 'NONE',  ( 0.000000000000000000, 0.000000000000000000, 1.000000000000000000 ) ) ;
#27 = VERTEX_POINT ( 'NONE', #104 ) ;
#28 = AXIS2_PLACEMENT_3D ( 'NONE', #7, #61, #31 ) ;
#29 = SURFACE_SIDE_STYLE ('',( #94 ) ) ;
#30 = VERTEX_POINT ( 'NONE', #133 ) ;
#31 = DIRECTION ( 'NONE',  ( 0.000000000000000000, 0.000000000000000000, 1.000000000000000000 ) ) ;
#32 = PRODUCT_DEFINITION_CONTEXT ( 'detailed design', #56, 'design' ) ;
#33 = EDGE_CURVE ( 'NONE', #27, #27, #4, .T. ) ;
#34 = SURFACE_STYLE_FILL_AREA ( #73 ) ;
#35 = EDGE_LOOP ( 'NONE', ( #78 ) ) ;
#36 = AXIS2_PLACEMENT_3D ( 'NONE', #120, #14, #92 ) ;
#37 = EDGE_LOOP ( 'NONE', ( #127 ) ) ;
#38 = CARTESIAN_POINT ( 'NONE',  ( 0.000000000000000000, 0.000000000000000000, 0.000000000000000000 ) ) ;
#39 = DIRECTION ( 'NONE',  ( -1.000000000000000000, -0.000000000000000000, -0.000000000000000000 ) ) ;
#40 = DIRECTION ( 'NONE',  ( -1.000000000000000000, -0.000000000000000000, -0.000000000000000000 ) ) ;
#41 = FILL_AREA_STYLE_COLOUR ( '', #123 ) ;
#42 = CLOSED_SHELL ( 'NONE', ( #84, #43, #105, #81 ) ) ;
#43 = ADVANCED_FACE ( 'NONE', ( #46, #12 ), #90, .F. ) ;
#44 = SURFACE_STYLE_USAGE ( .BOTH. , #76 ) ;
#45 = EDGE_LOOP ( 'NONE', ( #2 ) ) ;
#46 = FACE_OUTER_BOUND ( 'NONE', #48, .T. ) ;
#47 = AXIS2_PLACEMENT_3D ( 'NONE', #71, #8, #26 ) ;
#48 = EDGE_LOOP ( 'NONE', ( #21 ) ) ;
#49 = CARTESIAN_POINT ( 'NONE',  ( -1.599999999999997202, 0.000000000000000000, 0.000000000000000000 ) ) ;
#50 = SURFACE_STYLE_USAGE ( .BOTH. , #29 ) ;
#51 = FACE_OUTER_BOUND ( 'NONE', #3, .T. ) ;
#52 = CARTESIAN_POINT ( 'NONE',  ( 0.000000000000000000, 0.000000000000000000, 4.200000000000000178 ) ) ;
#53 = PRODUCT_CONTEXT ( 'NONE', #62, 'mechanical' ) ;
#54 = DIRECTION ( 'NONE',  ( -1.000000000000000000, -0.000000000000000000, -0.000000000000000000 ) ) ;
#55 =( GEOMETRIC_REPRESENTATION_CONTEXT ( 3 ) GLOBAL_UNCERTAINTY_ASSIGNED_CONTEXT ( ( #74 ) ) GLOBAL_UNIT_ASSIGNED_CONTEXT ( ( #121, #122, #57 ) ) REPRESENTATION_CONTEXT ( 'NONE', 'WORKASPACE' ) );
#56 = APPLICATION_CONTEXT ( 'automotive_design' ) ;
#57 =( NAMED_UNIT ( * ) SI_UNIT ( $, .STERADIAN. ) SOLID_ANGLE_UNIT ( ) );
#58 = PRODUCT_DEFINITION_FORMATION_WITH_SPECIFIED_SOURCE ( 'ANY', '', #23, .NOT_KNOWN. ) ;
#59 = PRODUCT_DEFINITION ( 'UNKNOWN', '', #58, #32 ) ;
#60 =( NAMED_UNIT ( * ) SI_UNIT ( $, .STERADIAN. ) SOLID_ANGLE_UNIT ( ) );
#61 = DIRECTION ( 'NONE',  ( -1.000000000000000000, -0.000000000000000000, -0.000000000000000000 ) ) ;
#62 = APPLICATION_CONTEXT ( 'automotive_design' ) ;
#63 = ORIENTED_EDGE ( 'NONE', *, *, #115, .F. ) ;
#64 = EDGE_LOOP ( 'NONE', ( #108 ) ) ;
#65 = EDGE_LOOP ( 'NONE', ( #89 ) ) ;
#66 = COLOUR_RGB ( '',0.7764705882352941346, 0.7568627450980391913, 0.7372549019607843590 ) ;
#67 = CYLINDRICAL_SURFACE ( 'NONE', #128, 4.200000000000000178 ) ;
#68 = PRODUCT_RELATED_PRODUCT_CATEGORY ( 'part', '', ( #23 ) ) ;
#69 = CARTESIAN_POINT ( 'NONE',  ( -1.599999999999997202, 0.000000000000000000, 8.000000000000000000 ) ) ;
#70 = AXIS2_PLACEMENT_3D ( 'NONE', #49, #124, #15 ) ;
#71 = CARTESIAN_POINT ( 'NONE',  ( -1.599999999999997202, 0.000000000000000000, 0.000000000000000000 ) ) ;
#72 = PRESENTATION_LAYER_ASSIGNMENT (  '', '', ( #130 ) ) ;
#73 = FILL_AREA_STYLE ('',( #19 ) ) ;
#74 = UNCERTAINTY_MEASURE_WITH_UNIT (LENGTH_MEASURE( 1.000000000000000082E-05 ), #121, 'distance_accuracy_value', 'NONE');
#75 =( NAMED_UNIT ( * ) SI_UNIT ( $, .STERADIAN. ) SOLID_ANGLE_UNIT ( ) );
#76 = SURFACE_SIDE_STYLE ('',( #34 ) ) ;
#77 = CARTESIAN_POINT ( 'NONE',  ( 0.000000000000000000, 0.000000000000000000, 0.000000000000000000 ) ) ;
#78 = ORIENTED_EDGE ( 'NONE', *, *, #33, .T. ) ;
#79 = EDGE_LOOP ( 'NONE', ( #129 ) ) ;
#80 = MECHANICAL_DESIGN_GEOMETRIC_PRESENTATION_REPRESENTATION (  '', ( #24 ), #55 ) ;
#81 = ADVANCED_FACE ( 'NONE', ( #13, #99 ), #5, .F. ) ;
#82 = DIRECTION ( 'NONE',  ( 0.000000000000000000, 0.000000000000000000, 1.000000000000000000 ) ) ;
#83 =( LENGTH_UNIT ( ) NAMED_UNIT ( * ) SI_UNIT ( .MILLI., .METRE. ) );
#84 = ADVANCED_FACE ( 'NONE', ( #25, #111 ), #67, .F. ) ;
#85 = UNCERTAINTY_MEASURE_WITH_UNIT (LENGTH_MEASURE( 1.000000000000000082E-05 ), #18, 'distance_accuracy_value', 'NONE');
#86 = AXIS2_PLACEMENT_3D ( 'NONE', #38, #40, #102 ) ;
#87 = EDGE_CURVE ( 'NONE', #101, #101, #118, .T. ) ;
#88 =( GEOMETRIC_REPRESENTATION_CONTEXT ( 3 ) GLOBAL_UNCERTAINTY_ASSIGNED_CONTEXT ( ( #85 ) ) GLOBAL_UNIT_ASSIGNED_CONTEXT ( ( #18, #114, #75 ) ) REPRESENTATION_CONTEXT ( 'NONE', 'WORKASPACE' ) );
#89 = ORIENTED_EDGE ( 'NONE', *, *, #95, .F. ) ;
#90 = PLANE ( 'NONE',  #36 ) ;
#91 = CIRCLE ( 'NONE', #47, 8.000000000000000000 ) ;
#92 = DIRECTION ( 'NONE',  ( -0.000000000000000000, 0.000000000000000000, 1.000000000000000000 ) ) ;
#93 = DIRECTION ( 'NONE',  ( 0.000000000000000000, 0.000000000000000000, -1.000000000000000000 ) ) ;
#94 = SURFACE_STYLE_FILL_AREA ( #16 ) ;
#95 = EDGE_CURVE ( 'NONE', #30, #30, #96, .T. ) ;
#96 = CIRCLE ( 'NONE', #70, 4.200000000000000178 ) ;
#97 =( GEOMETRIC_REPRESENTATION_CONTEXT ( 3 ) GLOBAL_UNCERTAINTY_ASSIGNED_CONTEXT ( ( #98 ) ) GLOBAL_UNIT_ASSIGNED_CONTEXT ( ( #83, #112, #60 ) ) REPRESENTATION_CONTEXT ( 'NONE', 'WORKASPACE' ) );
#98 = UNCERTAINTY_MEASURE_WITH_UNIT (LENGTH_MEASURE( 1.000000000000000082E-05 ), #83, 'distance_accuracy_value', 'NONE');
#99 = FACE_OUTER_BOUND ( 'NONE', #45, .T. ) ;
#100 = CARTESIAN_POINT ( 'NONE',  ( -1.599999999999998535, 8.000000000000000000, 0.000000000000000000 ) ) ;
#101 = VERTEX_POINT ( 'NONE', #52 ) ;
#102 = DIRECTION ( 'NONE',  ( 0.000000000000000000, 0.000000000000000000, 1.000000000000000000 ) ) ;
#103 = PRESENTATION_STYLE_ASSIGNMENT (( #50 ) ) ;
#104 = CARTESIAN_POINT ( 'NONE',  ( 0.000000000000000000, 0.000000000000000000, 8.000000000000000000 ) ) ;
#105 = ADVANCED_FACE ( 'NONE', ( #51, #113 ), #9, .T. ) ;
#106 = SHAPE_DEFINITION_REPRESENTATION ( #109, #125 ) ;
#107 = DIRECTION ( 'NONE',  ( 0.000000000000000000, 0.000000000000000000, 1.000000000000000000 ) ) ;
#108 = ORIENTED_EDGE ( 'NONE', *, *, #87, .F. ) ;
#109 = PRODUCT_DEFINITION_SHAPE ( 'NONE', 'NONE',  #59 ) ;
#110 = VERTEX_POINT ( 'NONE', #69 ) ;
#111 = FACE_OUTER_BOUND ( 'NONE', #79, .T. ) ;
#112 =( NAMED_UNIT ( * ) PLANE_ANGLE_UNIT ( ) SI_UNIT ( $, .RADIAN. ) );
#113 = FACE_OUTER_BOUND ( 'NONE', #35, .T. ) ;
#114 =( NAMED_UNIT ( * ) PLANE_ANGLE_UNIT ( ) SI_UNIT ( $, .RADIAN. ) );
#115 = EDGE_CURVE ( 'NONE', #110, #110, #91, .T. ) ;
#116 = PRESENTATION_LAYER_ASSIGNMENT (  '', '', ( #24 ) ) ;
#117 = MANIFOLD_SOLID_BREP ( 'Base-Revolve', #42 ) ;
#118 = CIRCLE ( 'NONE', #86, 4.200000000000000178 ) ;
#119 = MECHANICAL_DESIGN_GEOMETRIC_PRESENTATION_REPRESENTATION (  '', ( #130 ), #88 ) ;
#120 = CARTESIAN_POINT ( 'NONE',  ( 0.000000000000000000, 4.200000000000000178, 0.000000000000000000 ) ) ;
#121 =( LENGTH_UNIT ( ) NAMED_UNIT ( * ) SI_UNIT ( .MILLI., .METRE. ) );
#122 =( NAMED_UNIT ( * ) PLANE_ANGLE_UNIT ( ) SI_UNIT ( $, .RADIAN. ) );
#123 = COLOUR_RGB ( '',0.7764705882352941346, 0.7568627450980391913, 0.7372549019607843590 ) ;
#124 = DIRECTION ( 'NONE',  ( -1.000000000000000000, -0.000000000000000000, -0.000000000000000000 ) ) ;
#125 = ADVANCED_BREP_SHAPE_REPRESENTATION ( '3402314', ( #117, #22 ), #97 ) ;
#126 = DIRECTION ( 'NONE',  ( 1.000000000000000000, 0.000000000000000000, 0.000000000000000000 ) ) ;
#127 = ORIENTED_EDGE ( 'NONE', *, *, #87, .T. ) ;
#128 = AXIS2_PLACEMENT_3D ( 'NONE', #132, #39, #82 ) ;
#129 = ORIENTED_EDGE ( 'NONE', *, *, #95, .T. ) ;
#130 = STYLED_ITEM ( 'NONE', ( #134 ), #125 ) ;
#131 = APPLICATION_PROTOCOL_DEFINITION ( 'draft international standard', 'automotive_design', 1998, #62 ) ;
#132 = CARTESIAN_POINT ( 'NONE',  ( -34.92499999999994742, 0.000000000000000000, 0.000000000000000000 ) ) ;
#133 = CARTESIAN_POINT ( 'NONE',  ( -1.599999999999997202, 0.000000000000000000, 4.200000000000000178 ) ) ;
#134 = PRESENTATION_STYLE_ASSIGNMENT (( #44 ) ) ;
ENDSEC;
END-ISO-10303-21;
