ISO-10303-21;
HEADER;
FILE_DESCRIPTION (( 'STEP AP214' ),
    '1' );
FILE_NAME ('6015379.stp',
    '2017-01-24T09:12:54',
    ( '' ),
    ( '' ),
    'SwSTEP 2.0',
    'SolidWorks 2016',
    '' );
FILE_SCHEMA (( 'AUTOMOTIVE_DESIGN' ));
ENDSEC;

DATA;
#1 = ADVANCED_FACE ( 'NONE', ( #299 ), #37, .F. ) ;
#2 = ORIENTED_EDGE ( 'NONE', *, *, #76, .T. ) ;
#3 = PRODUCT_RELATED_PRODUCT_CATEGORY ( 'part', '', ( #19 ) ) ;
#4 = DIRECTION ( 'NONE',  ( 1.000000000000000000, 0.0000000000000000000, 0.0000000000000000000 ) ) ;
#5 = DIRECTION ( 'NONE',  ( 0.0000000000000000000, -1.000000000000000000, -0.0000000000000000000 ) ) ;
#6 = CARTESIAN_POINT ( 'NONE',  ( 3.000000000000000400, 0.0000000000000000000, 45.00000000000000700 ) ) ;
#7 = CARTESIAN_POINT ( 'NONE',  ( 0.0000000000000000000, 0.0000000000000000000, 0.0000000000000000000 ) ) ;
#8 = SURFACE_STYLE_FILL_AREA ( #302 ) ;
#9 = CARTESIAN_POINT ( 'NONE',  ( 0.0000000000000000000, 0.0000000000000000000, 0.0000000000000000000 ) ) ;
#10 = DIRECTION ( 'NONE',  ( 1.000000000000000000, 0.0000000000000000000, -0.0000000000000000000 ) ) ;
#11 = VERTEX_POINT ( 'NONE', #111 ) ;
#12 = EDGE_CURVE ( 'NONE', #73, #39, #238, .T. ) ;
#13 = DIRECTION ( 'NONE',  ( 0.0000000000000000000, 0.0000000000000000000, -1.000000000000000000 ) ) ;
#14 = CARTESIAN_POINT ( 'NONE',  ( 0.0000000000000000000, 108.0000000000000000, 0.0000000000000000000 ) ) ;
#15 = CARTESIAN_POINT ( 'NONE',  ( 158.0000000000000000, 105.0000000000000000, 0.0000000000000000000 ) ) ;
#16 = AXIS2_PLACEMENT_3D ( 'NONE', #272, #194, #47 ) ;
#17 = FACE_OUTER_BOUND ( 'NONE', #304, .T. ) ;
#18 = LINE ( 'NONE', #221, #233 ) ;
#19 = PRODUCT ( '6015379', '6015379', '', ( #170 ) ) ;
#20 = DIRECTION ( 'NONE',  ( -1.000000000000000000, 0.0000000000000000000, -0.0000000000000000000 ) ) ;
#21 = DIRECTION ( 'NONE',  ( 1.000000000000000000, 0.0000000000000000000, 0.0000000000000000000 ) ) ;
#22 = EDGE_CURVE ( 'NONE', #207, #164, #166, .T. ) ;
#23 = CARTESIAN_POINT ( 'NONE',  ( 208.0000000000000300, 105.0000000000000000, 0.0000000000000000000 ) ) ;
#24 = DIRECTION ( 'NONE',  ( 1.000000000000000000, 0.0000000000000000000, 0.0000000000000000000 ) ) ;
#25 = ORIENTED_EDGE ( 'NONE', *, *, #260, .T. ) ;
#26 = FACE_OUTER_BOUND ( 'NONE', #32, .T. ) ;
#27 = LINE ( 'NONE', #171, #259 ) ;
#28 = FACE_OUTER_BOUND ( 'NONE', #181, .T. ) ;
#29 = ORIENTED_EDGE ( 'NONE', *, *, #89, .T. ) ;
#30 = ADVANCED_FACE ( 'NONE', ( #55 ), #288, .T. ) ;
#31 = DIRECTION ( 'NONE',  ( 1.000000000000000000, 0.0000000000000000000, 0.0000000000000000000 ) ) ;
#32 = EDGE_LOOP ( 'NONE', ( #315, #112, #54, #178 ) ) ;
#33 = VECTOR ( 'NONE', #217, 1000.000000000000000 ) ;
#34 = LINE ( 'NONE', #157, #183 ) ;
#35 = AXIS2_PLACEMENT_3D ( 'NONE', #169, #195, #48 ) ;
#36 = DIRECTION ( 'NONE',  ( -1.000000000000000000, 0.0000000000000000000, 0.0000000000000000000 ) ) ;
#37 = PLANE ( 'NONE',  #140 ) ;
#38 = EDGE_CURVE ( 'NONE', #164, #335, #34, .T. ) ;
#39 = VERTEX_POINT ( 'NONE', #319 ) ;
#40 = CARTESIAN_POINT ( 'NONE',  ( 0.0000000000000000000, 102.0000000000000100, 0.0000000000000000000 ) ) ;
#41 = CARTESIAN_POINT ( 'NONE',  ( 3.000000000000000400, 0.0000000000000000000, 0.0000000000000000000 ) ) ;
#42 = CARTESIAN_POINT ( 'NONE',  ( 3.000000000000000000, 102.0000000000000100, 0.0000000000000000000 ) ) ;
#43 = VERTEX_POINT ( 'NONE', #134 ) ;
#44 = DIRECTION ( 'NONE',  ( 0.0000000000000000000, -1.000000000000000000, -0.0000000000000000000 ) ) ;
#45 = VECTOR ( 'NONE', #296, 1000.000000000000000 ) ;
#46 = VECTOR ( 'NONE', #114, 1000.000000000000000 ) ;
#47 = DIRECTION ( 'NONE',  ( 0.0000000000000000000, -0.0000000000000000000, 1.000000000000000000 ) ) ;
#48 = DIRECTION ( 'NONE',  ( 1.000000000000000000, 0.0000000000000000000, -0.0000000000000000000 ) ) ;
#49 = CARTESIAN_POINT ( 'NONE',  ( 0.0000000000000000000, 0.0000000000000000000, 0.0000000000000000000 ) ) ;
#50 = DIRECTION ( 'NONE',  ( 0.0000000000000000000, 0.0000000000000000000, 1.000000000000000000 ) ) ;
#51 = ORIENTED_EDGE ( 'NONE', *, *, #59, .T. ) ;
#52 = EDGE_CURVE ( 'NONE', #150, #207, #308, .T. ) ;
#53 =( NAMED_UNIT ( * ) SI_UNIT ( $, .STERADIAN. ) SOLID_ANGLE_UNIT ( ) );
#54 = ORIENTED_EDGE ( 'NONE', *, *, #189, .T. ) ;
#55 = FACE_OUTER_BOUND ( 'NONE', #155, .T. ) ;
#56 = LINE ( 'NONE', #120, #177 ) ;
#57 = STYLED_ITEM ( 'NONE', ( #332 ), #338 ) ;
#58 = VERTEX_POINT ( 'NONE', #6 ) ;
#59 = EDGE_CURVE ( 'NONE', #252, #11, #256, .T. ) ;
#60 = AXIS2_PLACEMENT_3D ( 'NONE', #237, #264, #109 ) ;
#61 = ORIENTED_EDGE ( 'NONE', *, *, #201, .F. ) ;
#62 = CYLINDRICAL_SURFACE ( 'NONE', #204, 3.000000000000000900 ) ;
#63 = DIRECTION ( 'NONE',  ( -0.0000000000000000000, 1.000000000000000000, 0.0000000000000000000 ) ) ;
#64 = CARTESIAN_POINT ( 'NONE',  ( 208.0000000000000600, 105.0000000000000000, 45.00000000000000700 ) ) ;
#65 = ORIENTED_EDGE ( 'NONE', *, *, #12, .T. ) ;
#66 = CARTESIAN_POINT ( 'NONE',  ( 158.0000000000000000, 105.0000000000000000, 0.0000000000000000000 ) ) ;
#67 = DIRECTION ( 'NONE',  ( 0.0000000000000000000, 0.0000000000000000000, 1.000000000000000000 ) ) ;
#68 = EDGE_CURVE ( 'NONE', #104, #141, #152, .T. ) ;
#69 = ORIENTED_EDGE ( 'NONE', *, *, #162, .F. ) ;
#70 = DIRECTION ( 'NONE',  ( -0.0000000000000000000, 1.000000000000000000, 0.0000000000000000000 ) ) ;
#71 = DIRECTION ( 'NONE',  ( 0.0000000000000000000, 0.0000000000000000000, -1.000000000000000000 ) ) ;
#72 = AXIS2_PLACEMENT_3D ( 'NONE', #333, #24, #199 ) ;
#73 = VERTEX_POINT ( 'NONE', #64 ) ;
#74 = DIRECTION ( 'NONE',  ( -0.0000000000000000000, 1.000000000000000000, 0.0000000000000000000 ) ) ;
#75 =( NAMED_UNIT ( * ) SI_UNIT ( $, .STERADIAN. ) SOLID_ANGLE_UNIT ( ) );
#76 = EDGE_CURVE ( 'NONE', #58, #104, #137, .T. ) ;
#77 = CARTESIAN_POINT ( 'NONE',  ( 208.0000000000000300, 108.0000000000000000, 0.0000000000000000000 ) ) ;
#78 = AXIS2_PLACEMENT_3D ( 'NONE', #9, #36, #185 ) ;
#79 = PRESENTATION_STYLE_ASSIGNMENT (( #278 ) ) ;
#80 = FILL_AREA_STYLE_COLOUR ( '', #106 ) ;
#81 = VERTEX_POINT ( 'NONE', #209 ) ;
#82 = LINE ( 'NONE', #98, #305 ) ;
#83 =( GEOMETRIC_REPRESENTATION_CONTEXT ( 3 ) GLOBAL_UNCERTAINTY_ASSIGNED_CONTEXT ( ( #303 ) ) GLOBAL_UNIT_ASSIGNED_CONTEXT ( ( #125, #306, #53 ) ) REPRESENTATION_CONTEXT ( 'NONE', 'WORKASPACE' ) );
#84 = ORIENTED_EDGE ( 'NONE', *, *, #301, .F. ) ;
#85 = ADVANCED_FACE ( 'NONE', ( #26 ), #289, .T. ) ;
#86 = LINE ( 'NONE', #245, #145 ) ;
#87 = UNCERTAINTY_MEASURE_WITH_UNIT (LENGTH_MEASURE( 1.000000000000000100E-005 ), #228, 'distance_accuracy_value', 'NONE');
#88 = PLANE ( 'NONE',  #241 ) ;
#89 = EDGE_CURVE ( 'NONE', #335, #176, #230, .T. ) ;
#90 = EDGE_LOOP ( 'NONE', ( #126, #102, #172, #175 ) ) ;
#91 = CARTESIAN_POINT ( 'NONE',  ( 6.000000000000000000, 108.0000000000000000, 45.00000000000000000 ) ) ;
#92 = ORIENTED_EDGE ( 'NONE', *, *, #12, .F. ) ;
#93 = EDGE_LOOP ( 'NONE', ( #100, #108, #187, #246 ) ) ;
#94 = DIRECTION ( 'NONE',  ( -0.0000000000000000000, -0.0000000000000000000, 1.000000000000000000 ) ) ;
#95 = FACE_OUTER_BOUND ( 'NONE', #93, .T. ) ;
#96 = CARTESIAN_POINT ( 'NONE',  ( 6.000000000000005300, 105.0000000000000000, 0.0000000000000000000 ) ) ;
#97 = VECTOR ( 'NONE', #94, 1000.000000000000000 ) ;
#98 = CARTESIAN_POINT ( 'NONE',  ( 0.0000000000000000000, 0.0000000000000000000, 0.0000000000000000000 ) ) ;
#99 =( LENGTH_UNIT ( ) NAMED_UNIT ( * ) SI_UNIT ( .MILLI., .METRE. ) );
#100 = ORIENTED_EDGE ( 'NONE', *, *, #52, .F. ) ;
#101 = SURFACE_SIDE_STYLE ('',( #203 ) ) ;
#102 = ORIENTED_EDGE ( 'NONE', *, *, #68, .F. ) ;
#103 =( NAMED_UNIT ( * ) PLANE_ANGLE_UNIT ( ) SI_UNIT ( $, .RADIAN. ) );
#104 = VERTEX_POINT ( 'NONE', #213 ) ;
#105 = ORIENTED_EDGE ( 'NONE', *, *, #201, .T. ) ;
#106 = COLOUR_RGB ( '',0.5999999999999999800, 0.5999999999999999800, 0.5999999999999999800 ) ;
#107 = ADVANCED_FACE ( 'NONE', ( #95 ), #336, .T. ) ;
#108 = ORIENTED_EDGE ( 'NONE', *, *, #206, .F. ) ;
#109 = DIRECTION ( 'NONE',  ( 0.0000000000000000000, 0.0000000000000000000, -1.000000000000000000 ) ) ;
#110 = FACE_OUTER_BOUND ( 'NONE', #268, .T. ) ;
#111 = CARTESIAN_POINT ( 'NONE',  ( 208.0000000000000600, 105.0000000000000000, 0.0000000000000000000 ) ) ;
#112 = ORIENTED_EDGE ( 'NONE', *, *, #162, .T. ) ;
#113 = CARTESIAN_POINT ( 'NONE',  ( 6.000000000000000000, 102.0000000000000100, 45.00000000000000000 ) ) ;
#114 = DIRECTION ( 'NONE',  ( -0.0000000000000000000, -0.0000000000000000000, -1.000000000000000000 ) ) ;
#115 = DIRECTION ( 'NONE',  ( 1.000000000000000000, 0.0000000000000000000, 0.0000000000000000000 ) ) ;
#116 = ORIENTED_EDGE ( 'NONE', *, *, #206, .T. ) ;
#117 = CARTESIAN_POINT ( 'NONE',  ( 6.000000000000000000, 108.0000000000000000, 0.0000000000000000000 ) ) ;
#118 = VECTOR ( 'NONE', #243, 1000.000000000000000 ) ;
#119 = LINE ( 'NONE', #219, #97 ) ;
#120 = CARTESIAN_POINT ( 'NONE',  ( 0.0000000000000000000, 0.0000000000000000000, 45.00000000000000000 ) ) ;
#121 = CARTESIAN_POINT ( 'NONE',  ( 6.000000000000002700, 105.0000000000000000, 0.0000000000000000000 ) ) ;
#122 = ORIENTED_EDGE ( 'NONE', *, *, #22, .T. ) ;
#123 = SURFACE_SIDE_STYLE ('',( #8 ) ) ;
#124 = EDGE_CURVE ( 'NONE', #252, #254, #275, .T. ) ;
#125 =( LENGTH_UNIT ( ) NAMED_UNIT ( * ) SI_UNIT ( .MILLI., .METRE. ) );
#126 = ORIENTED_EDGE ( 'NONE', *, *, #260, .F. ) ;
#127 =( NAMED_UNIT ( * ) SI_UNIT ( $, .STERADIAN. ) SOLID_ANGLE_UNIT ( ) );
#128 = PRODUCT_DEFINITION_CONTEXT ( 'detailed design', #329, 'design' ) ;
#129 = ORIENTED_EDGE ( 'NONE', *, *, #124, .T. ) ;
#130 = CIRCLE ( 'NONE', #318, 6.000000000000000000 ) ;
#131 = ADVANCED_FACE ( 'NONE', ( #17 ), #88, .T. ) ;
#132 = ORIENTED_EDGE ( 'NONE', *, *, #262, .F. ) ;
#133 = DIRECTION ( 'NONE',  ( -0.0000000000000000000, -0.0000000000000000000, -1.000000000000000000 ) ) ;
#134 = CARTESIAN_POINT ( 'NONE',  ( 0.0000000000000000000, 0.0000000000000000000, 45.00000000000000700 ) ) ;
#135 = ORIENTED_EDGE ( 'NONE', *, *, #244, .F. ) ;
#136 =( GEOMETRIC_REPRESENTATION_CONTEXT ( 3 ) GLOBAL_UNCERTAINTY_ASSIGNED_CONTEXT ( ( #87 ) ) GLOBAL_UNIT_ASSIGNED_CONTEXT ( ( #228, #103, #127 ) ) REPRESENTATION_CONTEXT ( 'NONE', 'WORKASPACE' ) );
#137 = LINE ( 'NONE', #317, #211 ) ;
#138 = SHAPE_DEFINITION_REPRESENTATION ( #271, #190 ) ;
#139 = DIRECTION ( 'NONE',  ( 1.000000000000000000, 0.0000000000000000000, -0.0000000000000000000 ) ) ;
#140 = AXIS2_PLACEMENT_3D ( 'NONE', #7, #265, #10 ) ;
#141 = VERTEX_POINT ( 'NONE', #163 ) ;
#142 = DIRECTION ( 'NONE',  ( 1.000000000000000000, 0.0000000000000000000, 0.0000000000000000000 ) ) ;
#143 = DIRECTION ( 'NONE',  ( 0.0000000000000000000, 0.0000000000000000000, -1.000000000000000000 ) ) ;
#144 = PLANE ( 'NONE',  #35 ) ;
#145 = VECTOR ( 'NONE', #13, 1000.000000000000000 ) ;
#146 = VECTOR ( 'NONE', #331, 1000.000000000000000 ) ;
#147 = APPLICATION_PROTOCOL_DEFINITION ( 'draft international standard', 'automotive_design', 1998, #329 ) ;
#148 = APPLICATION_CONTEXT ( 'automotive_design' ) ;
#149 = PLANE ( 'NONE',  #72 ) ;
#150 = VERTEX_POINT ( 'NONE', #91 ) ;
#151 = AXIS2_PLACEMENT_3D ( 'NONE', #184, #133, #31 ) ;
#152 = CIRCLE ( 'NONE', #151, 3.000000000000000900 ) ;
#153 = AXIS2_PLACEMENT_3D ( 'NONE', #321, #322, #142 ) ;
#154 = ORIENTED_EDGE ( 'NONE', *, *, #59, .F. ) ;
#155 = EDGE_LOOP ( 'NONE', ( #232, #122, #257, #132 ) ) ;
#156 = LINE ( 'NONE', #193, #325 ) ;
#157 = CARTESIAN_POINT ( 'NONE',  ( 0.0000000000000000000, 0.0000000000000000000, 0.0000000000000000000 ) ) ;
#158 = CARTESIAN_POINT ( 'NONE',  ( 0.0000000000000000000, 102.0000000000000100, 0.0000000000000000000 ) ) ;
#159 = ORIENTED_EDGE ( 'NONE', *, *, #189, .F. ) ;
#160 = LINE ( 'NONE', #23, #146 ) ;
#161 = CLOSED_SHELL ( 'NONE', ( #208, #179, #261, #313, #1, #234, #85, #131, #30, #107 ) ) ;
#162 = EDGE_CURVE ( 'NONE', #58, #176, #86, .T. ) ;
#163 = CARTESIAN_POINT ( 'NONE',  ( 6.000000000000002700, 105.0000000000000000, 45.00000000000000000 ) ) ;
#164 = VERTEX_POINT ( 'NONE', #158 ) ;
#165 = PLANE ( 'NONE',  #186 ) ;
#166 = LINE ( 'NONE', #40, #46 ) ;
#167 = PLANE ( 'NONE',  #16 ) ;
#168 = VECTOR ( 'NONE', #44, 1000.000000000000000 ) ;
#169 = CARTESIAN_POINT ( 'NONE',  ( 0.0000000000000000000, 0.0000000000000000000, 45.00000000000000000 ) ) ;
#170 = PRODUCT_CONTEXT ( 'NONE', #148, 'mechanical' ) ;
#171 = CARTESIAN_POINT ( 'NONE',  ( 0.0000000000000000000, 108.0000000000000000, 45.00000000000000000 ) ) ;
#172 = ORIENTED_EDGE ( 'NONE', *, *, #180, .F. ) ;
#173 = FILL_AREA_STYLE ('',( #80 ) ) ;
#174 = AXIS2_PLACEMENT_3D ( 'NONE', #212, #67, #4 ) ;
#175 = ORIENTED_EDGE ( 'NONE', *, *, #124, .F. ) ;
#176 = VERTEX_POINT ( 'NONE', #41 ) ;
#177 = VECTOR ( 'NONE', #298, 1000.000000000000000 ) ;
#178 = ORIENTED_EDGE ( 'NONE', *, *, #180, .T. ) ;
#179 = ADVANCED_FACE ( 'NONE', ( #220 ), #62, .F. ) ;
#180 = EDGE_CURVE ( 'NONE', #254, #104, #290, .T. ) ;
#181 = EDGE_LOOP ( 'NONE', ( #65, #192, #266, #307, #226, #2, #236, #274 ) ) ;
#182 = VECTOR ( 'NONE', #139, 1000.000000000000000 ) ;
#183 = VECTOR ( 'NONE', #5, 1000.000000000000000 ) ;
#184 = CARTESIAN_POINT ( 'NONE',  ( 6.000000000000000000, 102.0000000000000100, 45.00000000000000000 ) ) ;
#185 = DIRECTION ( 'NONE',  ( 0.0000000000000000000, 0.0000000000000000000, 1.000000000000000000 ) ) ;
#186 = AXIS2_PLACEMENT_3D ( 'NONE', #15, #218, #71 ) ;
#187 = ORIENTED_EDGE ( 'NONE', *, *, #285, .T. ) ;
#188 = LINE ( 'NONE', #77, #276 ) ;
#189 = EDGE_CURVE ( 'NONE', #176, #254, #156, .T. ) ;
#190 = ADVANCED_BREP_SHAPE_REPRESENTATION ( '6015379', ( #338, #214 ), #136 ) ;
#191 = CARTESIAN_POINT ( 'NONE',  ( 6.000000000000000000, 102.0000000000000100, 0.0000000000000000000 ) ) ;
#192 = ORIENTED_EDGE ( 'NONE', *, *, #301, .T. ) ;
#193 = CARTESIAN_POINT ( 'NONE',  ( 3.000000000000000000, 0.0000000000000000000, 0.0000000000000000000 ) ) ;
#194 = DIRECTION ( 'NONE',  ( -0.0000000000000000000, 1.000000000000000000, 0.0000000000000000000 ) ) ;
#195 = DIRECTION ( 'NONE',  ( 0.0000000000000000000, 0.0000000000000000000, 1.000000000000000000 ) ) ;
#196 = VERTEX_POINT ( 'NONE', #247 ) ;
#197 = DIRECTION ( 'NONE',  ( 0.0000000000000000000, 0.0000000000000000000, 1.000000000000000000 ) ) ;
#198 = CARTESIAN_POINT ( 'NONE',  ( 6.000000000000000000, 102.0000000000000100, 0.0000000000000000000 ) ) ;
#199 = DIRECTION ( 'NONE',  ( 0.0000000000000000000, 0.0000000000000000000, -1.000000000000000000 ) ) ;
#200 = ORIENTED_EDGE ( 'NONE', *, *, #89, .F. ) ;
#201 = EDGE_CURVE ( 'NONE', #196, #81, #255, .T. ) ;
#202 = ORIENTED_EDGE ( 'NONE', *, *, #267, .T. ) ;
#203 = SURFACE_STYLE_FILL_AREA ( #173 ) ;
#204 = AXIS2_PLACEMENT_3D ( 'NONE', #191, #215, #115 ) ;
#205 = COLOUR_RGB ( '',0.5999999999999999800, 0.5999999999999999800, 0.5999999999999999800 ) ;
#206 = EDGE_CURVE ( 'NONE', #81, #150, #239, .T. ) ;
#207 = VERTEX_POINT ( 'NONE', #327 ) ;
#208 = ADVANCED_FACE ( 'NONE', ( #110 ), #165, .T. ) ;
#209 = CARTESIAN_POINT ( 'NONE',  ( 6.000000000000000000, 108.0000000000000000, 0.0000000000000000000 ) ) ;
#210 = DIRECTION ( 'NONE',  ( 1.000000000000000000, 0.0000000000000000000, 0.0000000000000000000 ) ) ;
#211 = VECTOR ( 'NONE', #63, 1000.000000000000000 ) ;
#212 = CARTESIAN_POINT ( 'NONE',  ( 6.000000000000000000, 102.0000000000000100, 0.0000000000000000000 ) ) ;
#213 = CARTESIAN_POINT ( 'NONE',  ( 3.000000000000000000, 102.0000000000000100, 45.00000000000000000 ) ) ;
#214 = AXIS2_PLACEMENT_3D ( 'NONE', #49, #197, #21 ) ;
#215 = DIRECTION ( 'NONE',  ( 0.0000000000000000000, 0.0000000000000000000, 1.000000000000000000 ) ) ;
#216 = AXIS2_PLACEMENT_3D ( 'NONE', #113, #291, #210 ) ;
#217 = DIRECTION ( 'NONE',  ( 0.0000000000000000000, 0.0000000000000000000, 1.000000000000000000 ) ) ;
#218 = DIRECTION ( 'NONE',  ( 0.0000000000000000000, -1.000000000000000000, -0.0000000000000000000 ) ) ;
#219 = CARTESIAN_POINT ( 'NONE',  ( 208.0000000000000300, 108.0000000000000000, 0.0000000000000000000 ) ) ;
#220 = FACE_OUTER_BOUND ( 'NONE', #90, .T. ) ;
#221 = CARTESIAN_POINT ( 'NONE',  ( 158.0000000000000000, 105.0000000000000000, 45.00000000000000000 ) ) ;
#222 = STYLED_ITEM ( 'NONE', ( #79 ), #190 ) ;
#223 = DIRECTION ( 'NONE',  ( 1.000000000000000000, 0.0000000000000000000, 0.0000000000000000000 ) ) ;
#224 = EDGE_CURVE ( 'NONE', #43, #58, #56, .T. ) ;
#225 = FILL_AREA_STYLE_COLOUR ( '', #205 ) ;
#226 = ORIENTED_EDGE ( 'NONE', *, *, #224, .T. ) ;
#227 = EDGE_CURVE ( 'NONE', #207, #43, #300, .T. ) ;
#228 =( LENGTH_UNIT ( ) NAMED_UNIT ( * ) SI_UNIT ( .MILLI., .METRE. ) );
#229 = ORIENTED_EDGE ( 'NONE', *, *, #293, .F. ) ;
#230 = LINE ( 'NONE', #294, #182 ) ;
#231 = FACE_OUTER_BOUND ( 'NONE', #330, .T. ) ;
#232 = ORIENTED_EDGE ( 'NONE', *, *, #227, .F. ) ;
#233 = VECTOR ( 'NONE', #20, 1000.000000000000000 ) ;
#234 = ADVANCED_FACE ( 'NONE', ( #231 ), #167, .T. ) ;
#235 = PRODUCT_DEFINITION ( 'UNKNOWN', '', #323, #128 ) ;
#236 = ORIENTED_EDGE ( 'NONE', *, *, #68, .T. ) ;
#237 = CARTESIAN_POINT ( 'NONE',  ( 3.000000000000000000, 102.0000000000000100, 0.0000000000000000000 ) ) ;
#238 = LINE ( 'NONE', #242, #118 ) ;
#239 = LINE ( 'NONE', #117, #309 ) ;
#240 = DIRECTION ( 'NONE',  ( 1.000000000000000000, -0.0000000000000000000, 0.0000000000000000000 ) ) ;
#241 = AXIS2_PLACEMENT_3D ( 'NONE', #292, #295, #143 ) ;
#242 = CARTESIAN_POINT ( 'NONE',  ( 208.0000000000000300, 0.0000000000000000000, 45.00000000000000000 ) ) ;
#243 = DIRECTION ( 'NONE',  ( -0.0000000000000000000, 1.000000000000000000, 0.0000000000000000000 ) ) ;
#244 = EDGE_CURVE ( 'NONE', #196, #39, #119, .T. ) ;
#245 = CARTESIAN_POINT ( 'NONE',  ( 3.000000000000000000, 0.0000000000000000000, 0.0000000000000000000 ) ) ;
#246 = ORIENTED_EDGE ( 'NONE', *, *, #22, .F. ) ;
#247 = CARTESIAN_POINT ( 'NONE',  ( 208.0000000000000600, 108.0000000000000000, 0.0000000000000000000 ) ) ;
#248 = VECTOR ( 'NONE', #240, 1000.000000000000000 ) ;
#249 = CARTESIAN_POINT ( 'NONE',  ( 0.0000000000000000000, 0.0000000000000000000, 45.00000000000000000 ) ) ;
#250 = LINE ( 'NONE', #96, #316 ) ;
#251 =( NAMED_UNIT ( * ) PLANE_ANGLE_UNIT ( ) SI_UNIT ( $, .RADIAN. ) );
#252 = VERTEX_POINT ( 'NONE', #121 ) ;
#253 = DIRECTION ( 'NONE',  ( -1.000000000000000000, -0.0000000000000000000, 0.0000000000000000000 ) ) ;
#254 = VERTEX_POINT ( 'NONE', #273 ) ;
#255 = LINE ( 'NONE', #14, #45 ) ;
#256 = LINE ( 'NONE', #66, #248 ) ;
#257 = ORIENTED_EDGE ( 'NONE', *, *, #38, .T. ) ;
#258 = PRESENTATION_LAYER_ASSIGNMENT (  '', '', ( #222 ) ) ;
#259 = VECTOR ( 'NONE', #253, 1000.000000000000000 ) ;
#260 = EDGE_CURVE ( 'NONE', #141, #252, #250, .T. ) ;
#261 = ADVANCED_FACE ( 'NONE', ( #28 ), #144, .T. ) ;
#262 = EDGE_CURVE ( 'NONE', #43, #335, #82, .T. ) ;
#263 = EDGE_LOOP ( 'NONE', ( #334, #154, #129, #159, #200, #326, #320, #61 ) ) ;
#264 = DIRECTION ( 'NONE',  ( 1.000000000000000000, 0.0000000000000000000, 0.0000000000000000000 ) ) ;
#265 = DIRECTION ( 'NONE',  ( 0.0000000000000000000, 0.0000000000000000000, 1.000000000000000000 ) ) ;
#266 = ORIENTED_EDGE ( 'NONE', *, *, #52, .T. ) ;
#267 = EDGE_CURVE ( 'NONE', #73, #141, #18, .T. ) ;
#268 = EDGE_LOOP ( 'NONE', ( #25, #51, #324, #202 ) ) ;
#269 =( GEOMETRIC_REPRESENTATION_CONTEXT ( 3 ) GLOBAL_UNCERTAINTY_ASSIGNED_CONTEXT ( ( #281 ) ) GLOBAL_UNIT_ASSIGNED_CONTEXT ( ( #99, #251, #75 ) ) REPRESENTATION_CONTEXT ( 'NONE', 'WORKASPACE' ) );
#270 = DIRECTION ( 'NONE',  ( 0.0000000000000000000, -0.0000000000000000000, 1.000000000000000000 ) ) ;
#271 = PRODUCT_DEFINITION_SHAPE ( 'NONE', 'NONE',  #235 ) ;
#272 = CARTESIAN_POINT ( 'NONE',  ( 6.000000000000000000, 108.0000000000000000, 0.0000000000000000000 ) ) ;
#273 = CARTESIAN_POINT ( 'NONE',  ( 3.000000000000000000, 102.0000000000000100, 0.0000000000000000000 ) ) ;
#274 = ORIENTED_EDGE ( 'NONE', *, *, #267, .F. ) ;
#275 = CIRCLE ( 'NONE', #153, 3.000000000000000900 ) ;
#276 = VECTOR ( 'NONE', #74, 1000.000000000000000 ) ;
#277 = DIRECTION ( 'NONE',  ( 0.0000000000000000000, 0.0000000000000000000, -1.000000000000000000 ) ) ;
#278 = SURFACE_STYLE_USAGE ( .BOTH. , #123 ) ;
#279 = MECHANICAL_DESIGN_GEOMETRIC_PRESENTATION_REPRESENTATION (  '', ( #57 ), #83 ) ;
#280 = CARTESIAN_POINT ( 'NONE',  ( 0.0000000000000000000, 0.0000000000000000000, 0.0000000000000000000 ) ) ;
#281 = UNCERTAINTY_MEASURE_WITH_UNIT (LENGTH_MEASURE( 1.000000000000000100E-005 ), #99, 'distance_accuracy_value', 'NONE');
#282 = SURFACE_STYLE_USAGE ( .BOTH. , #101 ) ;
#283 = ORIENTED_EDGE ( 'NONE', *, *, #224, .F. ) ;
#284 = APPLICATION_PROTOCOL_DEFINITION ( 'draft international standard', 'automotive_design', 1998, #148 ) ;
#285 = EDGE_CURVE ( 'NONE', #81, #164, #130, .T. ) ;
#286 = EDGE_LOOP ( 'NONE', ( #92, #229, #314, #311 ) ) ;
#287 = MECHANICAL_DESIGN_GEOMETRIC_PRESENTATION_REPRESENTATION (  '', ( #222 ), #269 ) ;
#288 = PLANE ( 'NONE',  #78 ) ;
#289 = PLANE ( 'NONE',  #60 ) ;
#290 = LINE ( 'NONE', #42, #33 ) ;
#291 = DIRECTION ( 'NONE',  ( 0.0000000000000000000, 0.0000000000000000000, 1.000000000000000000 ) ) ;
#292 = CARTESIAN_POINT ( 'NONE',  ( 3.000000000000000000, 0.0000000000000000000, 0.0000000000000000000 ) ) ;
#293 = EDGE_CURVE ( 'NONE', #11, #73, #160, .T. ) ;
#294 = CARTESIAN_POINT ( 'NONE',  ( 0.0000000000000000000, 0.0000000000000000000, 0.0000000000000000000 ) ) ;
#295 = DIRECTION ( 'NONE',  ( 0.0000000000000000000, -1.000000000000000000, -0.0000000000000000000 ) ) ;
#296 = DIRECTION ( 'NONE',  ( -1.000000000000000000, -0.0000000000000000000, 0.0000000000000000000 ) ) ;
#297 = ORIENTED_EDGE ( 'NONE', *, *, #262, .T. ) ;
#298 = DIRECTION ( 'NONE',  ( 1.000000000000000000, 0.0000000000000000000, -0.0000000000000000000 ) ) ;
#299 = FACE_OUTER_BOUND ( 'NONE', #263, .T. ) ;
#300 = LINE ( 'NONE', #249, #168 ) ;
#301 = EDGE_CURVE ( 'NONE', #39, #150, #27, .T. ) ;
#302 = FILL_AREA_STYLE ('',( #225 ) ) ;
#303 = UNCERTAINTY_MEASURE_WITH_UNIT (LENGTH_MEASURE( 1.000000000000000100E-005 ), #125, 'distance_accuracy_value', 'NONE');
#304 = EDGE_LOOP ( 'NONE', ( #283, #297, #29, #69 ) ) ;
#305 = VECTOR ( 'NONE', #277, 1000.000000000000000 ) ;
#306 =( NAMED_UNIT ( * ) PLANE_ANGLE_UNIT ( ) SI_UNIT ( $, .RADIAN. ) );
#307 = ORIENTED_EDGE ( 'NONE', *, *, #227, .T. ) ;
#308 = CIRCLE ( 'NONE', #216, 6.000000000000000000 ) ;
#309 = VECTOR ( 'NONE', #270, 1000.000000000000000 ) ;
#310 = PRESENTATION_LAYER_ASSIGNMENT (  '', '', ( #57 ) ) ;
#311 = ORIENTED_EDGE ( 'NONE', *, *, #244, .T. ) ;
#312 = EDGE_CURVE ( 'NONE', #11, #196, #188, .T. ) ;
#313 = ADVANCED_FACE ( 'NONE', ( #337 ), #149, .T. ) ;
#314 = ORIENTED_EDGE ( 'NONE', *, *, #312, .T. ) ;
#315 = ORIENTED_EDGE ( 'NONE', *, *, #76, .F. ) ;
#316 = VECTOR ( 'NONE', #328, 1000.000000000000000 ) ;
#317 = CARTESIAN_POINT ( 'NONE',  ( 3.000000000000000000, 0.0000000000000000000, 45.00000000000000000 ) ) ;
#318 = AXIS2_PLACEMENT_3D ( 'NONE', #198, #50, #223 ) ;
#319 = CARTESIAN_POINT ( 'NONE',  ( 208.0000000000000600, 108.0000000000000000, 45.00000000000000700 ) ) ;
#320 = ORIENTED_EDGE ( 'NONE', *, *, #285, .F. ) ;
#321 = CARTESIAN_POINT ( 'NONE',  ( 6.000000000000000000, 102.0000000000000100, 0.0000000000000000000 ) ) ;
#322 = DIRECTION ( 'NONE',  ( 0.0000000000000000000, 0.0000000000000000000, 1.000000000000000000 ) ) ;
#323 = PRODUCT_DEFINITION_FORMATION_WITH_SPECIFIED_SOURCE ( 'ANY', '', #19, .NOT_KNOWN. ) ;
#324 = ORIENTED_EDGE ( 'NONE', *, *, #293, .T. ) ;
#325 = VECTOR ( 'NONE', #70, 1000.000000000000000 ) ;
#326 = ORIENTED_EDGE ( 'NONE', *, *, #38, .F. ) ;
#327 = CARTESIAN_POINT ( 'NONE',  ( 0.0000000000000000000, 102.0000000000000100, 45.00000000000000000 ) ) ;
#328 = DIRECTION ( 'NONE',  ( 0.0000000000000000000, 0.0000000000000000000, -1.000000000000000000 ) ) ;
#329 = APPLICATION_CONTEXT ( 'automotive_design' ) ;
#330 = EDGE_LOOP ( 'NONE', ( #105, #116, #84, #135 ) ) ;
#331 = DIRECTION ( 'NONE',  ( -0.0000000000000000000, -0.0000000000000000000, 1.000000000000000000 ) ) ;
#332 = PRESENTATION_STYLE_ASSIGNMENT (( #282 ) ) ;
#333 = CARTESIAN_POINT ( 'NONE',  ( 208.0000000000000300, 108.0000000000000000, 0.0000000000000000000 ) ) ;
#334 = ORIENTED_EDGE ( 'NONE', *, *, #312, .F. ) ;
#335 = VERTEX_POINT ( 'NONE', #280 ) ;
#336 = CYLINDRICAL_SURFACE ( 'NONE', #174, 6.000000000000000000 ) ;
#337 = FACE_OUTER_BOUND ( 'NONE', #286, .T. ) ;
#338 = MANIFOLD_SOLID_BREP ( 'DeleteFace2', #161 ) ;
ENDSEC;
END-ISO-10303-21;
