ISO-10303-21;
HEADER;
FILE_DESCRIPTION((''),'2;1');
FILE_NAME('6052656','2012-10-10T',('AndreasKeweloh'),(''),
'PRO/ENGINEER BY PARAMETRIC TECHNOLOGY CORPORATION, 2012230',
'PRO/ENGINEER BY PARAMETRIC TECHNOLOGY CORPORATION, 2012230','');
FILE_SCHEMA(('CONFIG_CONTROL_DESIGN'));
ENDSEC;
DATA;
#1=DIRECTION('',(0.E0,1.E0,0.E0));
#2=VECTOR('',#1,1.3E1);
#3=CARTESIAN_POINT('',(1.52E2,0.E0,-1.5E3));
#4=LINE('',#3,#2);
#5=CARTESIAN_POINT('',(1.5E2,1.3E1,-1.5E3));
#6=DIRECTION('',(0.E0,0.E0,1.E0));
#7=DIRECTION('',(1.E0,0.E0,0.E0));
#8=AXIS2_PLACEMENT_3D('',#5,#6,#7);
#10=DIRECTION('',(-1.E0,0.E0,0.E0));
#11=VECTOR('',#10,3.E2);
#12=CARTESIAN_POINT('',(1.5E2,1.5E1,-1.5E3));
#13=LINE('',#12,#11);
#14=CARTESIAN_POINT('',(-1.5E2,1.3E1,-1.5E3));
#15=DIRECTION('',(0.E0,0.E0,1.E0));
#16=DIRECTION('',(0.E0,1.E0,0.E0));
#17=AXIS2_PLACEMENT_3D('',#14,#15,#16);
#19=DIRECTION('',(0.E0,-1.E0,0.E0));
#20=VECTOR('',#19,1.3E1);
#21=CARTESIAN_POINT('',(-1.52E2,1.3E1,-1.5E3));
#22=LINE('',#21,#20);
#23=DIRECTION('',(1.E0,0.E0,0.E0));
#24=VECTOR('',#23,7.5E-1);
#25=CARTESIAN_POINT('',(-1.52E2,0.E0,-1.5E3));
#26=LINE('',#25,#24);
#27=DIRECTION('',(0.E0,1.E0,0.E0));
#28=VECTOR('',#27,1.3E1);
#29=CARTESIAN_POINT('',(-1.5125E2,0.E0,-1.5E3));
#30=LINE('',#29,#28);
#31=CARTESIAN_POINT('',(-1.5E2,1.3E1,-1.5E3));
#32=DIRECTION('',(0.E0,0.E0,-1.E0));
#33=DIRECTION('',(-1.E0,0.E0,0.E0));
#34=AXIS2_PLACEMENT_3D('',#31,#32,#33);
#36=DIRECTION('',(1.E0,0.E0,0.E0));
#37=VECTOR('',#36,3.E2);
#38=CARTESIAN_POINT('',(-1.5E2,1.425E1,-1.5E3));
#39=LINE('',#38,#37);
#40=CARTESIAN_POINT('',(1.5E2,1.3E1,-1.5E3));
#41=DIRECTION('',(0.E0,0.E0,-1.E0));
#42=DIRECTION('',(0.E0,1.E0,0.E0));
#43=AXIS2_PLACEMENT_3D('',#40,#41,#42);
#45=DIRECTION('',(0.E0,-1.E0,0.E0));
#46=VECTOR('',#45,1.3E1);
#47=CARTESIAN_POINT('',(1.5125E2,1.3E1,-1.5E3));
#48=LINE('',#47,#46);
#49=DIRECTION('',(1.E0,0.E0,0.E0));
#50=VECTOR('',#49,7.5E-1);
#51=CARTESIAN_POINT('',(1.5125E2,0.E0,-1.5E3));
#52=LINE('',#51,#50);
#53=DIRECTION('',(0.E0,0.E0,1.E0));
#54=VECTOR('',#53,3.E3);
#55=CARTESIAN_POINT('',(1.52E2,0.E0,-1.5E3));
#56=LINE('',#55,#54);
#57=DIRECTION('',(0.E0,0.E0,1.E0));
#58=VECTOR('',#57,3.E3);
#59=CARTESIAN_POINT('',(1.5125E2,0.E0,-1.5E3));
#60=LINE('',#59,#58);
#61=DIRECTION('',(0.E0,0.E0,1.E0));
#62=VECTOR('',#61,3.E3);
#63=CARTESIAN_POINT('',(1.5125E2,1.3E1,-1.5E3));
#64=LINE('',#63,#62);
#65=DIRECTION('',(0.E0,0.E0,1.E0));
#66=VECTOR('',#65,3.E3);
#67=CARTESIAN_POINT('',(1.5E2,1.425E1,-1.5E3));
#68=LINE('',#67,#66);
#69=DIRECTION('',(0.E0,0.E0,1.E0));
#70=VECTOR('',#69,3.E3);
#71=CARTESIAN_POINT('',(-1.5E2,1.425E1,-1.5E3));
#72=LINE('',#71,#70);
#73=DIRECTION('',(0.E0,0.E0,1.E0));
#74=VECTOR('',#73,3.E3);
#75=CARTESIAN_POINT('',(-1.5125E2,1.3E1,-1.5E3));
#76=LINE('',#75,#74);
#77=DIRECTION('',(0.E0,0.E0,1.E0));
#78=VECTOR('',#77,3.E3);
#79=CARTESIAN_POINT('',(-1.5125E2,0.E0,-1.5E3));
#80=LINE('',#79,#78);
#81=DIRECTION('',(0.E0,0.E0,1.E0));
#82=VECTOR('',#81,3.E3);
#83=CARTESIAN_POINT('',(-1.52E2,0.E0,-1.5E3));
#84=LINE('',#83,#82);
#85=DIRECTION('',(0.E0,0.E0,1.E0));
#86=VECTOR('',#85,3.E3);
#87=CARTESIAN_POINT('',(-1.52E2,1.3E1,-1.5E3));
#88=LINE('',#87,#86);
#89=DIRECTION('',(0.E0,0.E0,1.E0));
#90=VECTOR('',#89,3.E3);
#91=CARTESIAN_POINT('',(-1.5E2,1.5E1,-1.5E3));
#92=LINE('',#91,#90);
#93=DIRECTION('',(0.E0,0.E0,1.E0));
#94=VECTOR('',#93,3.E3);
#95=CARTESIAN_POINT('',(1.5E2,1.5E1,-1.5E3));
#96=LINE('',#95,#94);
#97=DIRECTION('',(0.E0,0.E0,1.E0));
#98=VECTOR('',#97,3.E3);
#99=CARTESIAN_POINT('',(1.52E2,1.3E1,-1.5E3));
#100=LINE('',#99,#98);
#101=DIRECTION('',(0.E0,1.E0,0.E0));
#102=VECTOR('',#101,1.3E1);
#103=CARTESIAN_POINT('',(1.52E2,0.E0,1.5E3));
#104=LINE('',#103,#102);
#105=DIRECTION('',(1.E0,0.E0,0.E0));
#106=VECTOR('',#105,7.5E-1);
#107=CARTESIAN_POINT('',(1.5125E2,0.E0,1.5E3));
#108=LINE('',#107,#106);
#109=DIRECTION('',(0.E0,-1.E0,0.E0));
#110=VECTOR('',#109,1.3E1);
#111=CARTESIAN_POINT('',(1.5125E2,1.3E1,1.5E3));
#112=LINE('',#111,#110);
#113=CARTESIAN_POINT('',(1.5E2,1.3E1,1.5E3));
#114=DIRECTION('',(0.E0,0.E0,-1.E0));
#115=DIRECTION('',(0.E0,1.E0,0.E0));
#116=AXIS2_PLACEMENT_3D('',#113,#114,#115);
#118=DIRECTION('',(1.E0,0.E0,0.E0));
#119=VECTOR('',#118,3.E2);
#120=CARTESIAN_POINT('',(-1.5E2,1.425E1,1.5E3));
#121=LINE('',#120,#119);
#122=CARTESIAN_POINT('',(-1.5E2,1.3E1,1.5E3));
#123=DIRECTION('',(0.E0,0.E0,-1.E0));
#124=DIRECTION('',(-1.E0,0.E0,0.E0));
#125=AXIS2_PLACEMENT_3D('',#122,#123,#124);
#127=DIRECTION('',(0.E0,1.E0,0.E0));
#128=VECTOR('',#127,1.3E1);
#129=CARTESIAN_POINT('',(-1.5125E2,0.E0,1.5E3));
#130=LINE('',#129,#128);
#131=DIRECTION('',(1.E0,0.E0,0.E0));
#132=VECTOR('',#131,7.5E-1);
#133=CARTESIAN_POINT('',(-1.52E2,0.E0,1.5E3));
#134=LINE('',#133,#132);
#135=DIRECTION('',(0.E0,-1.E0,0.E0));
#136=VECTOR('',#135,1.3E1);
#137=CARTESIAN_POINT('',(-1.52E2,1.3E1,1.5E3));
#138=LINE('',#137,#136);
#139=CARTESIAN_POINT('',(-1.5E2,1.3E1,1.5E3));
#140=DIRECTION('',(0.E0,0.E0,1.E0));
#141=DIRECTION('',(0.E0,1.E0,0.E0));
#142=AXIS2_PLACEMENT_3D('',#139,#140,#141);
#144=DIRECTION('',(-1.E0,0.E0,0.E0));
#145=VECTOR('',#144,3.E2);
#146=CARTESIAN_POINT('',(1.5E2,1.5E1,1.5E3));
#147=LINE('',#146,#145);
#148=CARTESIAN_POINT('',(1.5E2,1.3E1,1.5E3));
#149=DIRECTION('',(0.E0,0.E0,1.E0));
#150=DIRECTION('',(1.E0,0.E0,0.E0));
#151=AXIS2_PLACEMENT_3D('',#148,#149,#150);
#153=CARTESIAN_POINT('',(1.52E2,0.E0,-1.5E3));
#154=CARTESIAN_POINT('',(1.52E2,1.3E1,-1.5E3));
#155=VERTEX_POINT('',#153);
#156=VERTEX_POINT('',#154);
#157=CARTESIAN_POINT('',(1.5E2,1.5E1,-1.5E3));
#158=VERTEX_POINT('',#157);
#159=CARTESIAN_POINT('',(-1.5E2,1.5E1,-1.5E3));
#160=VERTEX_POINT('',#159);
#161=CARTESIAN_POINT('',(-1.52E2,1.3E1,-1.5E3));
#162=VERTEX_POINT('',#161);
#163=CARTESIAN_POINT('',(-1.52E2,0.E0,-1.5E3));
#164=VERTEX_POINT('',#163);
#165=CARTESIAN_POINT('',(-1.5125E2,0.E0,-1.5E3));
#166=VERTEX_POINT('',#165);
#167=CARTESIAN_POINT('',(-1.5125E2,1.3E1,-1.5E3));
#168=VERTEX_POINT('',#167);
#169=CARTESIAN_POINT('',(-1.5E2,1.425E1,-1.5E3));
#170=VERTEX_POINT('',#169);
#171=CARTESIAN_POINT('',(1.5E2,1.425E1,-1.5E3));
#172=VERTEX_POINT('',#171);
#173=CARTESIAN_POINT('',(1.5125E2,1.3E1,-1.5E3));
#174=VERTEX_POINT('',#173);
#175=CARTESIAN_POINT('',(1.5125E2,0.E0,-1.5E3));
#176=VERTEX_POINT('',#175);
#177=CARTESIAN_POINT('',(1.52E2,0.E0,1.5E3));
#178=CARTESIAN_POINT('',(1.52E2,1.3E1,1.5E3));
#179=VERTEX_POINT('',#177);
#180=VERTEX_POINT('',#178);
#181=CARTESIAN_POINT('',(1.5E2,1.5E1,1.5E3));
#182=VERTEX_POINT('',#181);
#183=CARTESIAN_POINT('',(-1.5E2,1.5E1,1.5E3));
#184=VERTEX_POINT('',#183);
#185=CARTESIAN_POINT('',(-1.52E2,1.3E1,1.5E3));
#186=VERTEX_POINT('',#185);
#187=CARTESIAN_POINT('',(-1.52E2,0.E0,1.5E3));
#188=VERTEX_POINT('',#187);
#189=CARTESIAN_POINT('',(-1.5125E2,0.E0,1.5E3));
#190=VERTEX_POINT('',#189);
#191=CARTESIAN_POINT('',(-1.5125E2,1.3E1,1.5E3));
#192=VERTEX_POINT('',#191);
#193=CARTESIAN_POINT('',(-1.5E2,1.425E1,1.5E3));
#194=VERTEX_POINT('',#193);
#195=CARTESIAN_POINT('',(1.5E2,1.425E1,1.5E3));
#196=VERTEX_POINT('',#195);
#197=CARTESIAN_POINT('',(1.5125E2,1.3E1,1.5E3));
#198=VERTEX_POINT('',#197);
#199=CARTESIAN_POINT('',(1.5125E2,0.E0,1.5E3));
#200=VERTEX_POINT('',#199);
#201=CARTESIAN_POINT('',(0.E0,0.E0,-1.5E3));
#202=DIRECTION('',(0.E0,0.E0,1.E0));
#203=DIRECTION('',(1.E0,0.E0,0.E0));
#204=AXIS2_PLACEMENT_3D('',#201,#202,#203);
#205=PLANE('',#204);
#207=ORIENTED_EDGE('',*,*,#206,.T.);
#209=ORIENTED_EDGE('',*,*,#208,.T.);
#211=ORIENTED_EDGE('',*,*,#210,.T.);
#213=ORIENTED_EDGE('',*,*,#212,.T.);
#215=ORIENTED_EDGE('',*,*,#214,.T.);
#217=ORIENTED_EDGE('',*,*,#216,.T.);
#219=ORIENTED_EDGE('',*,*,#218,.T.);
#221=ORIENTED_EDGE('',*,*,#220,.T.);
#223=ORIENTED_EDGE('',*,*,#222,.T.);
#225=ORIENTED_EDGE('',*,*,#224,.T.);
#227=ORIENTED_EDGE('',*,*,#226,.T.);
#229=ORIENTED_EDGE('',*,*,#228,.T.);
#230=EDGE_LOOP('',(#207,#209,#211,#213,#215,#217,#219,#221,#223,#225,#227,
#229));
#231=FACE_OUTER_BOUND('',#230,.F.);
#232=ADVANCED_FACE('',(#231),#205,.F.);
#233=CARTESIAN_POINT('',(1.52E2,0.E0,-1.5E3));
#234=DIRECTION('',(1.E0,0.E0,0.E0));
#235=DIRECTION('',(0.E0,1.E0,0.E0));
#236=AXIS2_PLACEMENT_3D('',#233,#234,#235);
#237=PLANE('',#236);
#238=ORIENTED_EDGE('',*,*,#206,.F.);
#240=ORIENTED_EDGE('',*,*,#239,.T.);
#242=ORIENTED_EDGE('',*,*,#241,.T.);
#244=ORIENTED_EDGE('',*,*,#243,.F.);
#245=EDGE_LOOP('',(#238,#240,#242,#244));
#246=FACE_OUTER_BOUND('',#245,.F.);
#247=ADVANCED_FACE('',(#246),#237,.T.);
#248=CARTESIAN_POINT('',(1.5125E2,0.E0,-1.5E3));
#249=DIRECTION('',(0.E0,-1.E0,0.E0));
#250=DIRECTION('',(1.E0,0.E0,0.E0));
#251=AXIS2_PLACEMENT_3D('',#248,#249,#250);
#252=PLANE('',#251);
#253=ORIENTED_EDGE('',*,*,#228,.F.);
#255=ORIENTED_EDGE('',*,*,#254,.T.);
#257=ORIENTED_EDGE('',*,*,#256,.T.);
#258=ORIENTED_EDGE('',*,*,#239,.F.);
#259=EDGE_LOOP('',(#253,#255,#257,#258));
#260=FACE_OUTER_BOUND('',#259,.F.);
#261=ADVANCED_FACE('',(#260),#252,.T.);
#262=CARTESIAN_POINT('',(1.5125E2,1.3E1,-1.5E3));
#263=DIRECTION('',(-1.E0,0.E0,0.E0));
#264=DIRECTION('',(0.E0,-1.E0,0.E0));
#265=AXIS2_PLACEMENT_3D('',#262,#263,#264);
#266=PLANE('',#265);
#267=ORIENTED_EDGE('',*,*,#226,.F.);
#269=ORIENTED_EDGE('',*,*,#268,.T.);
#271=ORIENTED_EDGE('',*,*,#270,.T.);
#272=ORIENTED_EDGE('',*,*,#254,.F.);
#273=EDGE_LOOP('',(#267,#269,#271,#272));
#274=FACE_OUTER_BOUND('',#273,.F.);
#275=ADVANCED_FACE('',(#274),#266,.T.);
#276=CARTESIAN_POINT('',(1.5E2,1.3E1,-1.5E3));
#277=DIRECTION('',(0.E0,0.E0,1.E0));
#278=DIRECTION('',(1.E0,0.E0,0.E0));
#279=AXIS2_PLACEMENT_3D('',#276,#277,#278);
#280=CYLINDRICAL_SURFACE('',#279,1.25E0);
#281=ORIENTED_EDGE('',*,*,#224,.F.);
#283=ORIENTED_EDGE('',*,*,#282,.T.);
#285=ORIENTED_EDGE('',*,*,#284,.T.);
#286=ORIENTED_EDGE('',*,*,#268,.F.);
#287=EDGE_LOOP('',(#281,#283,#285,#286));
#288=FACE_OUTER_BOUND('',#287,.F.);
#289=ADVANCED_FACE('',(#288),#280,.F.);
#290=CARTESIAN_POINT('',(-1.5E2,1.425E1,-1.5E3));
#291=DIRECTION('',(0.E0,-1.E0,0.E0));
#292=DIRECTION('',(1.E0,0.E0,0.E0));
#293=AXIS2_PLACEMENT_3D('',#290,#291,#292);
#294=PLANE('',#293);
#295=ORIENTED_EDGE('',*,*,#222,.F.);
#297=ORIENTED_EDGE('',*,*,#296,.T.);
#299=ORIENTED_EDGE('',*,*,#298,.T.);
#300=ORIENTED_EDGE('',*,*,#282,.F.);
#301=EDGE_LOOP('',(#295,#297,#299,#300));
#302=FACE_OUTER_BOUND('',#301,.F.);
#303=ADVANCED_FACE('',(#302),#294,.T.);
#304=CARTESIAN_POINT('',(-1.5E2,1.3E1,-1.5E3));
#305=DIRECTION('',(0.E0,0.E0,1.E0));
#306=DIRECTION('',(1.E0,0.E0,0.E0));
#307=AXIS2_PLACEMENT_3D('',#304,#305,#306);
#308=CYLINDRICAL_SURFACE('',#307,1.25E0);
#309=ORIENTED_EDGE('',*,*,#220,.F.);
#311=ORIENTED_EDGE('',*,*,#310,.T.);
#313=ORIENTED_EDGE('',*,*,#312,.T.);
#314=ORIENTED_EDGE('',*,*,#296,.F.);
#315=EDGE_LOOP('',(#309,#311,#313,#314));
#316=FACE_OUTER_BOUND('',#315,.F.);
#317=ADVANCED_FACE('',(#316),#308,.F.);
#318=CARTESIAN_POINT('',(-1.5125E2,0.E0,-1.5E3));
#319=DIRECTION('',(1.E0,0.E0,0.E0));
#320=DIRECTION('',(0.E0,1.E0,0.E0));
#321=AXIS2_PLACEMENT_3D('',#318,#319,#320);
#322=PLANE('',#321);
#323=ORIENTED_EDGE('',*,*,#218,.F.);
#325=ORIENTED_EDGE('',*,*,#324,.T.);
#327=ORIENTED_EDGE('',*,*,#326,.T.);
#328=ORIENTED_EDGE('',*,*,#310,.F.);
#329=EDGE_LOOP('',(#323,#325,#327,#328));
#330=FACE_OUTER_BOUND('',#329,.F.);
#331=ADVANCED_FACE('',(#330),#322,.T.);
#332=CARTESIAN_POINT('',(-1.52E2,0.E0,-1.5E3));
#333=DIRECTION('',(0.E0,-1.E0,0.E0));
#334=DIRECTION('',(1.E0,0.E0,0.E0));
#335=AXIS2_PLACEMENT_3D('',#332,#333,#334);
#336=PLANE('',#335);
#337=ORIENTED_EDGE('',*,*,#216,.F.);
#339=ORIENTED_EDGE('',*,*,#338,.T.);
#341=ORIENTED_EDGE('',*,*,#340,.T.);
#342=ORIENTED_EDGE('',*,*,#324,.F.);
#343=EDGE_LOOP('',(#337,#339,#341,#342));
#344=FACE_OUTER_BOUND('',#343,.F.);
#345=ADVANCED_FACE('',(#344),#336,.T.);
#346=CARTESIAN_POINT('',(-1.52E2,1.3E1,-1.5E3));
#347=DIRECTION('',(-1.E0,0.E0,0.E0));
#348=DIRECTION('',(0.E0,-1.E0,0.E0));
#349=AXIS2_PLACEMENT_3D('',#346,#347,#348);
#350=PLANE('',#349);
#351=ORIENTED_EDGE('',*,*,#214,.F.);
#353=ORIENTED_EDGE('',*,*,#352,.T.);
#355=ORIENTED_EDGE('',*,*,#354,.T.);
#356=ORIENTED_EDGE('',*,*,#338,.F.);
#357=EDGE_LOOP('',(#351,#353,#355,#356));
#358=FACE_OUTER_BOUND('',#357,.F.);
#359=ADVANCED_FACE('',(#358),#350,.T.);
#360=CARTESIAN_POINT('',(-1.5E2,1.3E1,-1.5E3));
#361=DIRECTION('',(0.E0,0.E0,1.E0));
#362=DIRECTION('',(1.E0,0.E0,0.E0));
#363=AXIS2_PLACEMENT_3D('',#360,#361,#362);
#364=CYLINDRICAL_SURFACE('',#363,2.E0);
#365=ORIENTED_EDGE('',*,*,#212,.F.);
#367=ORIENTED_EDGE('',*,*,#366,.T.);
#369=ORIENTED_EDGE('',*,*,#368,.T.);
#370=ORIENTED_EDGE('',*,*,#352,.F.);
#371=EDGE_LOOP('',(#365,#367,#369,#370));
#372=FACE_OUTER_BOUND('',#371,.F.);
#373=ADVANCED_FACE('',(#372),#364,.T.);
#374=CARTESIAN_POINT('',(1.5E2,1.5E1,-1.5E3));
#375=DIRECTION('',(0.E0,1.E0,0.E0));
#376=DIRECTION('',(-1.E0,0.E0,0.E0));
#377=AXIS2_PLACEMENT_3D('',#374,#375,#376);
#378=PLANE('',#377);
#379=ORIENTED_EDGE('',*,*,#210,.F.);
#381=ORIENTED_EDGE('',*,*,#380,.T.);
#383=ORIENTED_EDGE('',*,*,#382,.T.);
#384=ORIENTED_EDGE('',*,*,#366,.F.);
#385=EDGE_LOOP('',(#379,#381,#383,#384));
#386=FACE_OUTER_BOUND('',#385,.F.);
#387=ADVANCED_FACE('',(#386),#378,.T.);
#388=CARTESIAN_POINT('',(1.5E2,1.3E1,-1.5E3));
#389=DIRECTION('',(0.E0,0.E0,1.E0));
#390=DIRECTION('',(1.E0,0.E0,0.E0));
#391=AXIS2_PLACEMENT_3D('',#388,#389,#390);
#392=CYLINDRICAL_SURFACE('',#391,2.E0);
#393=ORIENTED_EDGE('',*,*,#208,.F.);
#394=ORIENTED_EDGE('',*,*,#243,.T.);
#396=ORIENTED_EDGE('',*,*,#395,.T.);
#397=ORIENTED_EDGE('',*,*,#380,.F.);
#398=EDGE_LOOP('',(#393,#394,#396,#397));
#399=FACE_OUTER_BOUND('',#398,.F.);
#400=ADVANCED_FACE('',(#399),#392,.T.);
#401=CARTESIAN_POINT('',(0.E0,0.E0,1.5E3));
#402=DIRECTION('',(0.E0,0.E0,1.E0));
#403=DIRECTION('',(1.E0,0.E0,0.E0));
#404=AXIS2_PLACEMENT_3D('',#401,#402,#403);
#405=PLANE('',#404);
#406=ORIENTED_EDGE('',*,*,#241,.F.);
#407=ORIENTED_EDGE('',*,*,#256,.F.);
#408=ORIENTED_EDGE('',*,*,#270,.F.);
#409=ORIENTED_EDGE('',*,*,#284,.F.);
#410=ORIENTED_EDGE('',*,*,#298,.F.);
#411=ORIENTED_EDGE('',*,*,#312,.F.);
#412=ORIENTED_EDGE('',*,*,#326,.F.);
#413=ORIENTED_EDGE('',*,*,#340,.F.);
#414=ORIENTED_EDGE('',*,*,#354,.F.);
#415=ORIENTED_EDGE('',*,*,#368,.F.);
#416=ORIENTED_EDGE('',*,*,#382,.F.);
#417=ORIENTED_EDGE('',*,*,#395,.F.);
#418=EDGE_LOOP('',(#406,#407,#408,#409,#410,#411,#412,#413,#414,#415,#416,
#417));
#419=FACE_OUTER_BOUND('',#418,.F.);
#420=ADVANCED_FACE('',(#419),#405,.T.);
#421=CLOSED_SHELL('',(#232,#247,#261,#275,#289,#303,#317,#331,#345,#359,#373,
#387,#400,#420));
#422=MANIFOLD_SOLID_BREP('',#421);
#424=DIMENSIONAL_EXPONENTS(0.E0,0.E0,0.E0,0.E0,0.E0,0.E0,0.E0);
#426=PLANE_ANGLE_MEASURE_WITH_UNIT(PLANE_ANGLE_MEASURE(1.745329251994E-2),#425);
#427=(CONVERSION_BASED_UNIT('DEGREE',#426)NAMED_UNIT(*)PLANE_ANGLE_UNIT());
#429=UNCERTAINTY_MEASURE_WITH_UNIT(LENGTH_MEASURE(3.015280020706E-2),#423,
'closure',
'Maximum model space distance between geometric entities at asserted connectivities');
#430=(GEOMETRIC_REPRESENTATION_CONTEXT(3)GLOBAL_UNCERTAINTY_ASSIGNED_CONTEXT((
#429))GLOBAL_UNIT_ASSIGNED_CONTEXT((#423,#427,#428))REPRESENTATION_CONTEXT
('ID1','3'));
#432=APPLICATION_CONTEXT(
'CONFIGURATION CONTROLLED 3D DESIGNS OF MECHANICAL PARTS AND ASSEMBLIES');
#433=APPLICATION_PROTOCOL_DEFINITION('international standard',
'config_control_design',1994,#432);
#434=DESIGN_CONTEXT('',#432,'design');
#435=MECHANICAL_CONTEXT('',#432,'mechanical');
#436=PRODUCT('6052656','6052656','NOT SPECIFIED',(#435));
#437=PRODUCT_DEFINITION_FORMATION_WITH_SPECIFIED_SOURCE('2','LAST_VERSION',#436,
.MADE.);
#441=PRODUCT_CATEGORY('part','');
#442=PRODUCT_RELATED_PRODUCT_CATEGORY('detail','',(#436));
#443=PRODUCT_CATEGORY_RELATIONSHIP('','',#441,#442);
#444=SECURITY_CLASSIFICATION_LEVEL('unclassified');
#445=SECURITY_CLASSIFICATION('','',#444);
#446=CC_DESIGN_SECURITY_CLASSIFICATION(#445,(#437));
#447=APPROVAL_STATUS('approved');
#448=APPROVAL(#447,'');
#449=CC_DESIGN_APPROVAL(#448,(#445,#437,#438));
#450=CALENDAR_DATE(112,10,10);
#451=COORDINATED_UNIVERSAL_TIME_OFFSET(2,0,.AHEAD.);
#452=LOCAL_TIME(16,9,3.3E1,#451);
#453=DATE_AND_TIME(#450,#452);
#454=APPROVAL_DATE_TIME(#453,#448);
#455=DATE_TIME_ROLE('creation_date');
#456=CC_DESIGN_DATE_AND_TIME_ASSIGNMENT(#453,#455,(#438));
#457=DATE_TIME_ROLE('classification_date');
#458=CC_DESIGN_DATE_AND_TIME_ASSIGNMENT(#453,#457,(#445));
#459=PERSON('UNSPECIFIED','UNSPECIFIED',$,$,$,$);
#460=ORGANIZATION('UNSPECIFIED','UNSPECIFIED','UNSPECIFIED');
#461=PERSON_AND_ORGANIZATION(#459,#460);
#462=APPROVAL_ROLE('approver');
#463=APPROVAL_PERSON_ORGANIZATION(#461,#448,#462);
#464=PERSON_AND_ORGANIZATION_ROLE('creator');
#465=CC_DESIGN_PERSON_AND_ORGANIZATION_ASSIGNMENT(#461,#464,(#437,#438));
#466=PERSON_AND_ORGANIZATION_ROLE('design_supplier');
#467=CC_DESIGN_PERSON_AND_ORGANIZATION_ASSIGNMENT(#461,#466,(#437));
#468=PERSON_AND_ORGANIZATION_ROLE('classification_officer');
#469=CC_DESIGN_PERSON_AND_ORGANIZATION_ASSIGNMENT(#461,#468,(#445));
#470=PERSON_AND_ORGANIZATION_ROLE('design_owner');
#471=CC_DESIGN_PERSON_AND_ORGANIZATION_ASSIGNMENT(#461,#470,(#436));
#9=CIRCLE('',#8,2.E0);
#18=CIRCLE('',#17,2.E0);
#35=CIRCLE('',#34,1.25E0);
#44=CIRCLE('',#43,1.25E0);
#117=CIRCLE('',#116,1.25E0);
#126=CIRCLE('',#125,1.25E0);
#143=CIRCLE('',#142,2.E0);
#152=CIRCLE('',#151,2.E0);
#206=EDGE_CURVE('',#155,#156,#4,.T.);
#208=EDGE_CURVE('',#156,#158,#9,.T.);
#210=EDGE_CURVE('',#158,#160,#13,.T.);
#212=EDGE_CURVE('',#160,#162,#18,.T.);
#214=EDGE_CURVE('',#162,#164,#22,.T.);
#216=EDGE_CURVE('',#164,#166,#26,.T.);
#218=EDGE_CURVE('',#166,#168,#30,.T.);
#220=EDGE_CURVE('',#168,#170,#35,.T.);
#222=EDGE_CURVE('',#170,#172,#39,.T.);
#224=EDGE_CURVE('',#172,#174,#44,.T.);
#226=EDGE_CURVE('',#174,#176,#48,.T.);
#228=EDGE_CURVE('',#176,#155,#52,.T.);
#239=EDGE_CURVE('',#155,#179,#56,.T.);
#241=EDGE_CURVE('',#179,#180,#104,.T.);
#243=EDGE_CURVE('',#156,#180,#100,.T.);
#254=EDGE_CURVE('',#176,#200,#60,.T.);
#256=EDGE_CURVE('',#200,#179,#108,.T.);
#268=EDGE_CURVE('',#174,#198,#64,.T.);
#270=EDGE_CURVE('',#198,#200,#112,.T.);
#282=EDGE_CURVE('',#172,#196,#68,.T.);
#284=EDGE_CURVE('',#196,#198,#117,.T.);
#296=EDGE_CURVE('',#170,#194,#72,.T.);
#298=EDGE_CURVE('',#194,#196,#121,.T.);
#310=EDGE_CURVE('',#168,#192,#76,.T.);
#312=EDGE_CURVE('',#192,#194,#126,.T.);
#324=EDGE_CURVE('',#166,#190,#80,.T.);
#326=EDGE_CURVE('',#190,#192,#130,.T.);
#338=EDGE_CURVE('',#164,#188,#84,.T.);
#340=EDGE_CURVE('',#188,#190,#134,.T.);
#352=EDGE_CURVE('',#162,#186,#88,.T.);
#354=EDGE_CURVE('',#186,#188,#138,.T.);
#366=EDGE_CURVE('',#160,#184,#92,.T.);
#368=EDGE_CURVE('',#184,#186,#143,.T.);
#380=EDGE_CURVE('',#158,#182,#96,.T.);
#382=EDGE_CURVE('',#182,#184,#147,.T.);
#395=EDGE_CURVE('',#180,#182,#152,.T.);
#423=(LENGTH_UNIT()NAMED_UNIT(*)SI_UNIT(.MILLI.,.METRE.));
#425=(NAMED_UNIT(*)PLANE_ANGLE_UNIT()SI_UNIT($,.RADIAN.));
#428=(NAMED_UNIT(*)SI_UNIT($,.STERADIAN.)SOLID_ANGLE_UNIT());
#431=ADVANCED_BREP_SHAPE_REPRESENTATION('',(#422),#430);
#438=PRODUCT_DEFINITION('design','',#437,#434);
#439=PRODUCT_DEFINITION_SHAPE('','SHAPE FOR 6052656.',#438);
#440=SHAPE_DEFINITION_REPRESENTATION(#439,#431);
ENDSEC;
END-ISO-10303-21;
