ISO-10303-21;
HEADER;
FILE_DESCRIPTION (( 'STEP AP214' ),
    '1' );
FILE_NAME ('6348408.stp',
    '2020-09-18T10:49:57',
    ( '' ),
    ( '' ),
    'SwSTEP 2.0',
    'SolidWorks 2020',
    '' );
FILE_SCHEMA (( 'AUTOMOTIVE_DESIGN' ));
ENDSEC;

DATA;
#1 = CARTESIAN_POINT ( 'NONE',  ( -25.00000000000000000, -29.99999999999999645, 6.500000000000000000 ) ) ;
#2 = EDGE_CURVE ( 'NONE', #84, #9, #21, .T. ) ;
#3 = FACE_OUTER_BOUND ( 'NONE', #214, .T. ) ;
#4 = ORIENTED_EDGE ( 'NONE', *, *, #24, .T. ) ;
#5 = CARTESIAN_POINT ( 'NONE',  ( -24.99999999999999645, 30.00000000000000355, 6.500000000000000000 ) ) ;
#6 = EDGE_LOOP ( 'NONE', ( #226, #128, #206, #88 ) ) ;
#7 = CARTESIAN_POINT ( 'NONE',  ( -24.99999999999999645, 30.00000000000000355, 6.500000000000000000 ) ) ;
#8 = ADVANCED_FACE ( 'NONE', ( #19 ), #41, .F. ) ;
#9 = VERTEX_POINT ( 'NONE', #183 ) ;
#10 = DIRECTION ( 'NONE',  ( -5.782411586589357392E-17, -1.000000000000000000, -0.0000000000000000000 ) ) ;
#11 = CARTESIAN_POINT ( 'NONE',  ( -24.99999999999999645, 30.00000000000000355, 0.0000000000000000000 ) ) ;
#12 = DIRECTION ( 'NONE',  ( 0.0000000000000000000, 0.0000000000000000000, -1.000000000000000000 ) ) ;
#13 = COLOUR_RGB ( '',1.000000000000000000, 1.000000000000000000, 1.000000000000000000 ) ;
#14 = EDGE_CURVE ( 'NONE', #272, #224, #101, .T. ) ;
#15 = AXIS2_PLACEMENT_3D ( 'NONE', #230, #42, #122 ) ;
#16 = ORIENTED_EDGE ( 'NONE', *, *, #118, .T. ) ;
#17 = EDGE_LOOP ( 'NONE', ( #27, #148 ) ) ;
#18 = MECHANICAL_DESIGN_GEOMETRIC_PRESENTATION_REPRESENTATION (  '', ( #215 ), #237 ) ;
#19 = FACE_OUTER_BOUND ( 'NONE', #58, .T. ) ;
#20 = DIRECTION ( 'NONE',  ( 1.000000000000000000, -5.782411586589358625E-17, 0.0000000000000000000 ) ) ;
#21 = LINE ( 'NONE', #228, #242 ) ;
#22 = CIRCLE ( 'NONE', #165, 6.500000000000000888 ) ;
#23 = CARTESIAN_POINT ( 'NONE',  ( -24.99999999999999645, 30.00000000000000355, 6.500000000000000000 ) ) ;
#24 = EDGE_CURVE ( 'NONE', #84, #50, #275, .T. ) ;
#25 = CARTESIAN_POINT ( 'NONE',  ( -25.00000000000000000, -29.99999999999999645, 0.0000000000000000000 ) ) ;
#26 = LINE ( 'NONE', #1, #174 ) ;
#27 = ORIENTED_EDGE ( 'NONE', *, *, #218, .T. ) ;
#28 = LINE ( 'NONE', #7, #103 ) ;
#29 = ADVANCED_FACE ( 'NONE', ( #181 ), #141, .F. ) ;
#30 = VECTOR ( 'NONE', #126, 1000.000000000000000 ) ;
#31 = VERTEX_POINT ( 'NONE', #79 ) ;
#32 = DIRECTION ( 'NONE',  ( -0.0000000000000000000, -0.0000000000000000000, -1.000000000000000000 ) ) ;
#33 = FILL_AREA_STYLE ('',( #244 ) ) ;
#34 = DIRECTION ( 'NONE',  ( -1.000000000000000000, -0.0000000000000000000, -0.0000000000000000000 ) ) ;
#35 = VECTOR ( 'NONE', #121, 1000.000000000000000 ) ;
#36 = VECTOR ( 'NONE', #102, 1000.000000000000000 ) ;
#37 = ADVANCED_FACE ( 'NONE', ( #158 ), #160, .F. ) ;
#38 = CIRCLE ( 'NONE', #52, 6.500000000000000888 ) ;
#39 = ORIENTED_EDGE ( 'NONE', *, *, #223, .F. ) ;
#40 = EDGE_LOOP ( 'NONE', ( #135, #110, #180, #155 ) ) ;
#41 = PLANE ( 'NONE',  #137 ) ;
#42 = DIRECTION ( 'NONE',  ( -1.000000000000000000, -5.782411586589358625E-17, 0.0000000000000000000 ) ) ;
#43 = FACE_BOUND ( 'NONE', #235, .T. ) ;
#44 = PLANE ( 'NONE',  #233 ) ;
#45 = PRESENTATION_LAYER_ASSIGNMENT (  '', '', ( #154 ) ) ;
#46 = SURFACE_SIDE_STYLE ('',( #47 ) ) ;
#47 = SURFACE_STYLE_FILL_AREA ( #83 ) ;
#48 = VERTEX_POINT ( 'NONE', #131 ) ;
#49 = CARTESIAN_POINT ( 'NONE',  ( -24.99999999999999645, 30.00000000000000355, 0.0000000000000000000 ) ) ;
#50 = VERTEX_POINT ( 'NONE', #5 ) ;
#51 = DIRECTION ( 'NONE',  ( -1.000000000000000000, 0.0000000000000000000, 0.0000000000000000000 ) ) ;
#52 = AXIS2_PLACEMENT_3D ( 'NONE', #85, #216, #262 ) ;
#53 = FACE_OUTER_BOUND ( 'NONE', #177, .T. ) ;
#54 = CARTESIAN_POINT ( 'NONE',  ( 25.00000000000000000, -29.99999999999999645, 6.500000000000000000 ) ) ;
#55 = ORIENTED_EDGE ( 'NONE', *, *, #73, .F. ) ;
#56 = VECTOR ( 'NONE', #89, 1000.000000000000000 ) ;
#57 = EDGE_CURVE ( 'NONE', #201, #272, #38, .T. ) ;
#58 = EDGE_LOOP ( 'NONE', ( #261, #59, #203, #251 ) ) ;
#59 = ORIENTED_EDGE ( 'NONE', *, *, #136, .F. ) ;
#60 = AXIS2_PLACEMENT_3D ( 'NONE', #145, #65, #106 ) ;
#61 = CARTESIAN_POINT ( 'NONE',  ( 0.0000000000000000000, 0.0000000000000000000, 6.500000000000000000 ) ) ;
#62 = CARTESIAN_POINT ( 'NONE',  ( -24.99999999999999645, 30.00000000000000355, 6.500000000000000000 ) ) ;
#63 = PLANE ( 'NONE',  #116 ) ;
#64 = CARTESIAN_POINT ( 'NONE',  ( -6.500000000000000888, 0.0000000000000000000, 6.500000000000000000 ) ) ;
#65 = DIRECTION ( 'NONE',  ( -0.0000000000000000000, -0.0000000000000000000, -1.000000000000000000 ) ) ;
#66 = LINE ( 'NONE', #25, #30 ) ;
#67 = ORIENTED_EDGE ( 'NONE', *, *, #24, .F. ) ;
#68 = LINE ( 'NONE', #147, #56 ) ;
#69 = VERTEX_POINT ( 'NONE', #49 ) ;
#70 = CARTESIAN_POINT ( 'NONE',  ( -6.500000000000000888, 0.0000000000000000000, 6.500000000000000000 ) ) ;
#71 =( NAMED_UNIT ( * ) PLANE_ANGLE_UNIT ( ) SI_UNIT ( $, .RADIAN. ) );
#72 = SURFACE_SIDE_STYLE ('',( #115 ) ) ;
#73 = EDGE_CURVE ( 'NONE', #201, #31, #129, .T. ) ;
#74 = FACE_BOUND ( 'NONE', #17, .T. ) ;
#75 = DIRECTION ( 'NONE',  ( 0.0000000000000000000, 0.0000000000000000000, 1.000000000000000000 ) ) ;
#76 =( GEOMETRIC_REPRESENTATION_CONTEXT ( 3 ) GLOBAL_UNCERTAINTY_ASSIGNED_CONTEXT ( ( #185 ) ) GLOBAL_UNIT_ASSIGNED_CONTEXT ( ( #266, #173, #151 ) ) REPRESENTATION_CONTEXT ( 'NONE', 'WORKASPACE' ) );
#77 = ORIENTED_EDGE ( 'NONE', *, *, #73, .T. ) ;
#78 = ORIENTED_EDGE ( 'NONE', *, *, #218, .F. ) ;
#79 = CARTESIAN_POINT ( 'NONE',  ( -6.500000000000000888, 0.0000000000000000000, 0.0000000000000000000 ) ) ;
#80 = DIRECTION ( 'NONE',  ( -1.000000000000000000, -0.0000000000000000000, -0.0000000000000000000 ) ) ;
#81 = DIRECTION ( 'NONE',  ( 0.0000000000000000000, 0.0000000000000000000, -1.000000000000000000 ) ) ;
#82 = FACE_OUTER_BOUND ( 'NONE', #119, .T. ) ;
#83 = FILL_AREA_STYLE ('',( #191 ) ) ;
#84 = VERTEX_POINT ( 'NONE', #238 ) ;
#85 = CARTESIAN_POINT ( 'NONE',  ( 0.0000000000000000000, 0.0000000000000000000, 6.500000000000000000 ) ) ;
#86 = EDGE_CURVE ( 'NONE', #48, #9, #111, .T. ) ;
#87 = VECTOR ( 'NONE', #34, 1000.000000000000000 ) ;
#88 = ORIENTED_EDGE ( 'NONE', *, *, #245, .T. ) ;
#89 = DIRECTION ( 'NONE',  ( -0.0000000000000000000, -0.0000000000000000000, -1.000000000000000000 ) ) ;
#90 = VECTOR ( 'NONE', #80, 1000.000000000000000 ) ;
#91 = CARTESIAN_POINT ( 'NONE',  ( -24.99999999999999645, 30.00000000000000355, 0.0000000000000000000 ) ) ;
#92 = AXIS2_PLACEMENT_3D ( 'NONE', #23, #231, #162 ) ;
#93 = SURFACE_STYLE_USAGE ( .BOTH. , #72 ) ;
#94 = APPLICATION_PROTOCOL_DEFINITION ( 'draft international standard', 'automotive_design', 1998, #176 ) ;
#95 = PRODUCT_DEFINITION_SHAPE ( 'NONE', 'NONE',  #264 ) ;
#96 = ORIENTED_EDGE ( 'NONE', *, *, #57, .T. ) ;
#97 = CLOSED_SHELL ( 'NONE', ( #37, #190, #256, #8, #202, #29, #197, #153 ) ) ;
#98 = ORIENTED_EDGE ( 'NONE', *, *, #149, .F. ) ;
#99 = ORIENTED_EDGE ( 'NONE', *, *, #114, .F. ) ;
#100 = CARTESIAN_POINT ( 'NONE',  ( 6.500000000000000888, 7.960204194457794491E-16, 6.500000000000000000 ) ) ;
#101 = LINE ( 'NONE', #100, #35 ) ;
#102 = DIRECTION ( 'NONE',  ( -5.782411586589357392E-17, -1.000000000000000000, -0.0000000000000000000 ) ) ;
#103 = VECTOR ( 'NONE', #32, 1000.000000000000000 ) ;
#104 = LINE ( 'NONE', #105, #36 ) ;
#105 = CARTESIAN_POINT ( 'NONE',  ( -25.00000000000000000, -29.99999999999999645, 0.0000000000000000000 ) ) ;
#106 = DIRECTION ( 'NONE',  ( -1.000000000000000000, 0.0000000000000000000, 0.0000000000000000000 ) ) ;
#107 = EDGE_CURVE ( 'NONE', #50, #69, #28, .T. ) ;
#108 = ORIENTED_EDGE ( 'NONE', *, *, #175, .T. ) ;
#109 = DIRECTION ( 'NONE',  ( 0.0000000000000000000, 0.0000000000000000000, 1.000000000000000000 ) ) ;
#110 = ORIENTED_EDGE ( 'NONE', *, *, #245, .F. ) ;
#111 = LINE ( 'NONE', #213, #222 ) ;
#112 = APPLICATION_CONTEXT ( 'automotive_design' ) ;
#113 = DIRECTION ( 'NONE',  ( -1.000000000000000000, 0.0000000000000000000, -0.0000000000000000000 ) ) ;
#114 = EDGE_CURVE ( 'NONE', #224, #31, #22, .T. ) ;
#115 = SURFACE_STYLE_FILL_AREA ( #33 ) ;
#116 = AXIS2_PLACEMENT_3D ( 'NONE', #255, #81, #123 ) ;
#117 = VECTOR ( 'NONE', #240, 1000.000000000000000 ) ;
#118 = EDGE_CURVE ( 'NONE', #50, #146, #195, .T. ) ;
#119 = EDGE_LOOP ( 'NONE', ( #130, #249, #67, #178 ) ) ;
#120 = ORIENTED_EDGE ( 'NONE', *, *, #200, .F. ) ;
#121 = DIRECTION ( 'NONE',  ( -0.0000000000000000000, -0.0000000000000000000, -1.000000000000000000 ) ) ;
#122 = DIRECTION ( 'NONE',  ( 5.782411586589358625E-17, -1.000000000000000000, 0.0000000000000000000 ) ) ;
#123 = DIRECTION ( 'NONE',  ( -1.000000000000000000, 0.0000000000000000000, -0.0000000000000000000 ) ) ;
#124 = VECTOR ( 'NONE', #133, 1000.000000000000000 ) ;
#125 = CARTESIAN_POINT ( 'NONE',  ( -25.00000000000000000, -29.99999999999999645, 6.500000000000000000 ) ) ;
#126 = DIRECTION ( 'NONE',  ( 1.000000000000000000, 0.0000000000000000000, 0.0000000000000000000 ) ) ;
#127 =( LENGTH_UNIT ( ) NAMED_UNIT ( * ) SI_UNIT ( .MILLI., .METRE. ) );
#128 = ORIENTED_EDGE ( 'NONE', *, *, #2, .F. ) ;
#129 = LINE ( 'NONE', #70, #117 ) ;
#130 = ORIENTED_EDGE ( 'NONE', *, *, #223, .T. ) ;
#131 = CARTESIAN_POINT ( 'NONE',  ( 25.00000000000000000, -29.99999999999999645, 0.0000000000000000000 ) ) ;
#132 = LINE ( 'NONE', #172, #220 ) ;
#133 = DIRECTION ( 'NONE',  ( -0.0000000000000000000, -0.0000000000000000000, -1.000000000000000000 ) ) ;
#134 = AXIS2_PLACEMENT_3D ( 'NONE', #11, #12, #113 ) ;
#135 = ORIENTED_EDGE ( 'NONE', *, *, #149, .T. ) ;
#136 = EDGE_CURVE ( 'NONE', #146, #164, #68, .T. ) ;
#137 = AXIS2_PLACEMENT_3D ( 'NONE', #208, #20, #273 ) ;
#138 = ORIENTED_EDGE ( 'NONE', *, *, #14, .F. ) ;
#139 = DIRECTION ( 'NONE',  ( -0.0000000000000000000, -0.0000000000000000000, -1.000000000000000000 ) ) ;
#140 = PRESENTATION_LAYER_ASSIGNMENT (  '', '', ( #215 ) ) ;
#141 = PLANE ( 'NONE',  #15 ) ;
#142 = FACE_OUTER_BOUND ( 'NONE', #157, .T. ) ;
#143 = FACE_OUTER_BOUND ( 'NONE', #40, .T. ) ;
#144 = CIRCLE ( 'NONE', #248, 6.500000000000000888 ) ;
#145 = CARTESIAN_POINT ( 'NONE',  ( 0.0000000000000000000, 0.0000000000000000000, 6.500000000000000000 ) ) ;
#146 = VERTEX_POINT ( 'NONE', #170 ) ;
#147 = CARTESIAN_POINT ( 'NONE',  ( -25.00000000000000000, -29.99999999999999645, 6.500000000000000000 ) ) ;
#148 = ORIENTED_EDGE ( 'NONE', *, *, #114, .T. ) ;
#149 = EDGE_CURVE ( 'NONE', #164, #48, #66, .T. ) ;
#150 = DIRECTION ( 'NONE',  ( -5.782411586589357392E-17, 1.000000000000000000, 0.0000000000000000000 ) ) ;
#151 =( NAMED_UNIT ( * ) SI_UNIT ( $, .STERADIAN. ) SOLID_ANGLE_UNIT ( ) );
#152 = DIRECTION ( 'NONE',  ( 1.000000000000000000, 0.0000000000000000000, 0.0000000000000000000 ) ) ;
#153 = ADVANCED_FACE ( 'NONE', ( #3 ), #257, .F. ) ;
#154 = STYLED_ITEM ( 'NONE', ( #263 ), #270 ) ;
#155 = ORIENTED_EDGE ( 'NONE', *, *, #136, .T. ) ;
#156 = DIRECTION ( 'NONE',  ( 1.000000000000000000, 0.0000000000000000000, 0.0000000000000000000 ) ) ;
#157 = EDGE_LOOP ( 'NONE', ( #16, #108, #192, #4 ) ) ;
#158 = FACE_OUTER_BOUND ( 'NONE', #239, .T. ) ;
#159 = UNCERTAINTY_MEASURE_WITH_UNIT (LENGTH_MEASURE( 1.000000000000000082E-05 ), #267, 'distance_accuracy_value', 'NONE');
#160 = CYLINDRICAL_SURFACE ( 'NONE', #171, 6.500000000000000888 ) ;
#161 = CARTESIAN_POINT ( 'NONE',  ( 0.0000000000000000000, 0.0000000000000000000, 6.500000000000000000 ) ) ;
#162 = DIRECTION ( 'NONE',  ( 0.0000000000000000000, -0.0000000000000000000, -1.000000000000000000 ) ) ;
#163 = SURFACE_STYLE_USAGE ( .BOTH. , #46 ) ;
#164 = VERTEX_POINT ( 'NONE', #211 ) ;
#165 = AXIS2_PLACEMENT_3D ( 'NONE', #167, #109, #193 ) ;
#166 = AXIS2_PLACEMENT_3D ( 'NONE', #252, #250, #156 ) ;
#167 = CARTESIAN_POINT ( 'NONE',  ( 0.0000000000000000000, 0.0000000000000000000, 0.0000000000000000000 ) ) ;
#168 = PRODUCT_DEFINITION_CONTEXT ( 'detailed design', #112, 'design' ) ;
#169 = ORIENTED_EDGE ( 'NONE', *, *, #207, .F. ) ;
#170 = CARTESIAN_POINT ( 'NONE',  ( -25.00000000000000000, -29.99999999999999645, 6.500000000000000000 ) ) ;
#171 = AXIS2_PLACEMENT_3D ( 'NONE', #61, #253, #51 ) ;
#172 = CARTESIAN_POINT ( 'NONE',  ( 25.00000000000000000, -29.99999999999999645, 6.500000000000000000 ) ) ;
#173 =( NAMED_UNIT ( * ) PLANE_ANGLE_UNIT ( ) SI_UNIT ( $, .RADIAN. ) );
#174 = VECTOR ( 'NONE', #188, 1000.000000000000000 ) ;
#175 = EDGE_CURVE ( 'NONE', #146, #227, #26, .T. ) ;
#176 = APPLICATION_CONTEXT ( 'automotive_design' ) ;
#177 = EDGE_LOOP ( 'NONE', ( #120, #39, #212, #98 ) ) ;
#178 = ORIENTED_EDGE ( 'NONE', *, *, #2, .T. ) ;
#179 = CIRCLE ( 'NONE', #246, 6.500000000000000888 ) ;
#180 = ORIENTED_EDGE ( 'NONE', *, *, #175, .F. ) ;
#181 = FACE_OUTER_BOUND ( 'NONE', #6, .T. ) ;
#182 = PRODUCT_CONTEXT ( 'NONE', #176, 'mechanical' ) ;
#183 = CARTESIAN_POINT ( 'NONE',  ( 24.99999999999999645, 30.00000000000000355, 0.0000000000000000000 ) ) ;
#184 = DIRECTION ( 'NONE',  ( 0.0000000000000000000, -0.0000000000000000000, 1.000000000000000000 ) ) ;
#185 = UNCERTAINTY_MEASURE_WITH_UNIT (LENGTH_MEASURE( 1.000000000000000082E-05 ), #266, 'distance_accuracy_value', 'NONE');
#186 =( NAMED_UNIT ( * ) SI_UNIT ( $, .STERADIAN. ) SOLID_ANGLE_UNIT ( ) );
#187 =( NAMED_UNIT ( * ) PLANE_ANGLE_UNIT ( ) SI_UNIT ( $, .RADIAN. ) );
#188 = DIRECTION ( 'NONE',  ( 1.000000000000000000, 0.0000000000000000000, 0.0000000000000000000 ) ) ;
#189 = MANIFOLD_SOLID_BREP ( 'Aufsatz-Linear austragen1', #97 ) ;
#190 = ADVANCED_FACE ( 'NONE', ( #142, #43 ), #63, .F. ) ;
#191 = FILL_AREA_STYLE_COLOUR ( '', #13 ) ;
#192 = ORIENTED_EDGE ( 'NONE', *, *, #269, .T. ) ;
#193 = DIRECTION ( 'NONE',  ( 1.000000000000000000, 0.0000000000000000000, 0.0000000000000000000 ) ) ;
#194 = ORIENTED_EDGE ( 'NONE', *, *, #14, .T. ) ;
#195 = LINE ( 'NONE', #260, #268 ) ;
#196 = PLANE ( 'NONE',  #134 ) ;
#197 = ADVANCED_FACE ( 'NONE', ( #82 ), #209, .F. ) ;
#198 = MECHANICAL_DESIGN_GEOMETRIC_PRESENTATION_REPRESENTATION (  '', ( #154 ), #259 ) ;
#199 = CARTESIAN_POINT ( 'NONE',  ( 6.500000000000000888, 7.960204194457794491E-16, 6.500000000000000000 ) ) ;
#200 = EDGE_CURVE ( 'NONE', #69, #164, #104, .T. ) ;
#201 = VERTEX_POINT ( 'NONE', #64 ) ;
#202 = ADVANCED_FACE ( 'NONE', ( #143 ), #44, .F. ) ;
#203 = ORIENTED_EDGE ( 'NONE', *, *, #118, .F. ) ;
#204 = COLOUR_RGB ( '',1.000000000000000000, 1.000000000000000000, 1.000000000000000000 ) ;
#205 = APPLICATION_PROTOCOL_DEFINITION ( 'draft international standard', 'automotive_design', 1998, #112 ) ;
#206 = ORIENTED_EDGE ( 'NONE', *, *, #269, .F. ) ;
#207 = EDGE_CURVE ( 'NONE', #272, #201, #179, .T. ) ;
#208 = CARTESIAN_POINT ( 'NONE',  ( -25.00000000000000000, -29.99999999999999645, 6.500000000000000000 ) ) ;
#209 = PLANE ( 'NONE',  #92 ) ;
#210 = DIRECTION ( 'NONE',  ( 0.0000000000000000000, 1.000000000000000000, 0.0000000000000000000 ) ) ;
#211 = CARTESIAN_POINT ( 'NONE',  ( -25.00000000000000000, -29.99999999999999645, 0.0000000000000000000 ) ) ;
#212 = ORIENTED_EDGE ( 'NONE', *, *, #86, .F. ) ;
#213 = CARTESIAN_POINT ( 'NONE',  ( 25.00000000000000000, -29.99999999999999645, 0.0000000000000000000 ) ) ;
#214 = EDGE_LOOP ( 'NONE', ( #138, #258, #77, #99 ) ) ;
#215 = STYLED_ITEM ( 'NONE', ( #234 ), #189 ) ;
#216 = DIRECTION ( 'NONE',  ( 0.0000000000000000000, 0.0000000000000000000, 1.000000000000000000 ) ) ;
#217 = LINE ( 'NONE', #243, #124 ) ;
#218 = EDGE_CURVE ( 'NONE', #31, #224, #144, .T. ) ;
#219 = CARTESIAN_POINT ( 'NONE',  ( 6.500000000000000888, 7.960204194457794491E-16, 0.0000000000000000000 ) ) ;
#220 = VECTOR ( 'NONE', #221, 1000.000000000000000 ) ;
#221 = DIRECTION ( 'NONE',  ( -5.782411586589357392E-17, 1.000000000000000000, 0.0000000000000000000 ) ) ;
#222 = VECTOR ( 'NONE', #150, 1000.000000000000000 ) ;
#223 = EDGE_CURVE ( 'NONE', #9, #69, #241, .T. ) ;
#224 = VERTEX_POINT ( 'NONE', #219 ) ;
#225 = PRODUCT_DEFINITION_FORMATION_WITH_SPECIFIED_SOURCE ( 'ANY', '', #247, .NOT_KNOWN. ) ;
#226 = ORIENTED_EDGE ( 'NONE', *, *, #86, .T. ) ;
#227 = VERTEX_POINT ( 'NONE', #54 ) ;
#228 = CARTESIAN_POINT ( 'NONE',  ( 24.99999999999999645, 30.00000000000000355, 6.500000000000000000 ) ) ;
#229 = SHAPE_DEFINITION_REPRESENTATION ( #95, #270 ) ;
#230 = CARTESIAN_POINT ( 'NONE',  ( 25.00000000000000000, -29.99999999999999645, 6.500000000000000000 ) ) ;
#231 = DIRECTION ( 'NONE',  ( 0.0000000000000000000, -1.000000000000000000, 0.0000000000000000000 ) ) ;
#232 = CARTESIAN_POINT ( 'NONE',  ( 0.0000000000000000000, 0.0000000000000000000, 0.0000000000000000000 ) ) ;
#233 = AXIS2_PLACEMENT_3D ( 'NONE', #125, #210, #184 ) ;
#234 = PRESENTATION_STYLE_ASSIGNMENT (( #163 ) ) ;
#235 = EDGE_LOOP ( 'NONE', ( #271, #169 ) ) ;
#236 = PRODUCT_RELATED_PRODUCT_CATEGORY ( 'part', '', ( #247 ) ) ;
#237 =( GEOMETRIC_REPRESENTATION_CONTEXT ( 3 ) GLOBAL_UNCERTAINTY_ASSIGNED_CONTEXT ( ( #274 ) ) GLOBAL_UNIT_ASSIGNED_CONTEXT ( ( #127, #187, #186 ) ) REPRESENTATION_CONTEXT ( 'NONE', 'WORKASPACE' ) );
#238 = CARTESIAN_POINT ( 'NONE',  ( 24.99999999999999645, 30.00000000000000355, 6.500000000000000000 ) ) ;
#239 = EDGE_LOOP ( 'NONE', ( #96, #194, #78, #55 ) ) ;
#240 = DIRECTION ( 'NONE',  ( -0.0000000000000000000, -0.0000000000000000000, -1.000000000000000000 ) ) ;
#241 = LINE ( 'NONE', #91, #87 ) ;
#242 = VECTOR ( 'NONE', #139, 1000.000000000000000 ) ;
#243 = CARTESIAN_POINT ( 'NONE',  ( 25.00000000000000000, -29.99999999999999645, 6.500000000000000000 ) ) ;
#244 = FILL_AREA_STYLE_COLOUR ( '', #204 ) ;
#245 = EDGE_CURVE ( 'NONE', #227, #48, #217, .T. ) ;
#246 = AXIS2_PLACEMENT_3D ( 'NONE', #161, #276, #254 ) ;
#247 = PRODUCT ( '6348408', '6348408', '', ( #182 ) ) ;
#248 = AXIS2_PLACEMENT_3D ( 'NONE', #232, #75, #152 ) ;
#249 = ORIENTED_EDGE ( 'NONE', *, *, #107, .F. ) ;
#250 = DIRECTION ( 'NONE',  ( 0.0000000000000000000, 0.0000000000000000000, 1.000000000000000000 ) ) ;
#251 = ORIENTED_EDGE ( 'NONE', *, *, #107, .T. ) ;
#252 = CARTESIAN_POINT ( 'NONE',  ( 0.0000000000000000000, 0.0000000000000000000, 0.0000000000000000000 ) ) ;
#253 = DIRECTION ( 'NONE',  ( -0.0000000000000000000, -0.0000000000000000000, -1.000000000000000000 ) ) ;
#254 = DIRECTION ( 'NONE',  ( 1.000000000000000000, 0.0000000000000000000, 0.0000000000000000000 ) ) ;
#255 = CARTESIAN_POINT ( 'NONE',  ( -24.99999999999999645, 30.00000000000000355, 6.500000000000000000 ) ) ;
#256 = ADVANCED_FACE ( 'NONE', ( #53, #74 ), #196, .T. ) ;
#257 = CYLINDRICAL_SURFACE ( 'NONE', #60, 6.500000000000000888 ) ;
#258 = ORIENTED_EDGE ( 'NONE', *, *, #207, .T. ) ;
#259 =( GEOMETRIC_REPRESENTATION_CONTEXT ( 3 ) GLOBAL_UNCERTAINTY_ASSIGNED_CONTEXT ( ( #159 ) ) GLOBAL_UNIT_ASSIGNED_CONTEXT ( ( #267, #71, #265 ) ) REPRESENTATION_CONTEXT ( 'NONE', 'WORKASPACE' ) );
#260 = CARTESIAN_POINT ( 'NONE',  ( -25.00000000000000000, -29.99999999999999645, 6.500000000000000000 ) ) ;
#261 = ORIENTED_EDGE ( 'NONE', *, *, #200, .T. ) ;
#262 = DIRECTION ( 'NONE',  ( 1.000000000000000000, 0.0000000000000000000, 0.0000000000000000000 ) ) ;
#263 = PRESENTATION_STYLE_ASSIGNMENT (( #93 ) ) ;
#264 = PRODUCT_DEFINITION ( 'UNKNOWN', '', #225, #168 ) ;
#265 =( NAMED_UNIT ( * ) SI_UNIT ( $, .STERADIAN. ) SOLID_ANGLE_UNIT ( ) );
#266 =( LENGTH_UNIT ( ) NAMED_UNIT ( * ) SI_UNIT ( .MILLI., .METRE. ) );
#267 =( LENGTH_UNIT ( ) NAMED_UNIT ( * ) SI_UNIT ( .MILLI., .METRE. ) );
#268 = VECTOR ( 'NONE', #10, 1000.000000000000000 ) ;
#269 = EDGE_CURVE ( 'NONE', #227, #84, #132, .T. ) ;
#270 = ADVANCED_BREP_SHAPE_REPRESENTATION ( '6348408', ( #189, #166 ), #76 ) ;
#271 = ORIENTED_EDGE ( 'NONE', *, *, #57, .F. ) ;
#272 = VERTEX_POINT ( 'NONE', #199 ) ;
#273 = DIRECTION ( 'NONE',  ( 5.782411586589358625E-17, 1.000000000000000000, 0.0000000000000000000 ) ) ;
#274 = UNCERTAINTY_MEASURE_WITH_UNIT (LENGTH_MEASURE( 1.000000000000000082E-05 ), #127, 'distance_accuracy_value', 'NONE');
#275 = LINE ( 'NONE', #62, #90 ) ;
#276 = DIRECTION ( 'NONE',  ( 0.0000000000000000000, 0.0000000000000000000, 1.000000000000000000 ) ) ;
ENDSEC;
END-ISO-10303-21;
