ISO-10303-21;
HEADER;
FILE_DESCRIPTION (( 'STEP AP214' ),
    '1' );
FILE_NAME ('6408739.stp',
    '2019-12-02T09:03:40',
    ( '' ),
    ( '' ),
    'SwSTEP 2.0',
    'SolidWorks 2018',
    '' );
FILE_SCHEMA (( 'AUTOMOTIVE_DESIGN' ));
ENDSEC;

DATA;
#1 = CIRCLE ( 'NONE', #68, 22.00000000000000000 ) ;
#2 = DIRECTION ( 'NONE',  ( 0.0000000000000000000, 0.0000000000000000000, 1.000000000000000000 ) ) ;
#3 = AXIS2_PLACEMENT_3D ( 'NONE', #17, #19, #134 ) ;
#4 = FACE_BOUND ( 'NONE', #57, .T. ) ;
#5 = CARTESIAN_POINT ( 'NONE',  ( 0.0000000000000000000, 0.0000000000000000000, 4.000000000000000000 ) ) ;
#6 = DIRECTION ( 'NONE',  ( 1.000000000000000000, 0.0000000000000000000, 0.0000000000000000000 ) ) ;
#7 = CARTESIAN_POINT ( 'NONE',  ( 22.00000000000000000, 2.694222958124176809E-15, 4.000000000000000000 ) ) ;
#8 = VECTOR ( 'NONE', #186, 1000.000000000000000 ) ;
#9 = DIRECTION ( 'NONE',  ( -0.0000000000000000000, -0.0000000000000000000, -1.000000000000000000 ) ) ;
#10 = APPLICATION_PROTOCOL_DEFINITION ( 'draft international standard', 'automotive_design', 1998, #54 ) ;
#11 = PRODUCT_CONTEXT ( 'NONE', #54, 'mechanical' ) ;
#12 = CYLINDRICAL_SURFACE ( 'NONE', #160, 6.750000000000000000 ) ;
#13 = VERTEX_POINT ( 'NONE', #61 ) ;
#14 = CIRCLE ( 'NONE', #152, 22.00000000000000000 ) ;
#15 = VERTEX_POINT ( 'NONE', #165 ) ;
#16 =( LENGTH_UNIT ( ) NAMED_UNIT ( * ) SI_UNIT ( .MILLI., .METRE. ) );
#17 = CARTESIAN_POINT ( 'NONE',  ( 0.0000000000000000000, 0.0000000000000000000, 0.0000000000000000000 ) ) ;
#18 = ORIENTED_EDGE ( 'NONE', *, *, #91, .F. ) ;
#19 = DIRECTION ( 'NONE',  ( 0.0000000000000000000, 0.0000000000000000000, 1.000000000000000000 ) ) ;
#20 = SURFACE_STYLE_USAGE ( .BOTH. , #157 ) ;
#21 = CIRCLE ( 'NONE', #117, 22.00000000000000000 ) ;
#22 = UNCERTAINTY_MEASURE_WITH_UNIT (LENGTH_MEASURE( 1.000000000000000082E-05 ), #126, 'distance_accuracy_value', 'NONE');
#23 = DIRECTION ( 'NONE',  ( 1.000000000000000000, 0.0000000000000000000, 0.0000000000000000000 ) ) ;
#24 = PRODUCT_RELATED_PRODUCT_CATEGORY ( 'part', '', ( #161 ) ) ;
#25 = CARTESIAN_POINT ( 'NONE',  ( 0.0000000000000000000, 0.0000000000000000000, 0.0000000000000000000 ) ) ;
#26 = LINE ( 'NONE', #28, #8 ) ;
#27 = DIRECTION ( 'NONE',  ( -0.0000000000000000000, -0.0000000000000000000, -1.000000000000000000 ) ) ;
#28 = CARTESIAN_POINT ( 'NONE',  ( -22.00000000000000000, 0.0000000000000000000, 4.000000000000000000 ) ) ;
#29 = EDGE_LOOP ( 'NONE', ( #62, #37, #211, #197 ) ) ;
#30 = DIRECTION ( 'NONE',  ( 1.000000000000000000, 0.0000000000000000000, 0.0000000000000000000 ) ) ;
#31 = CARTESIAN_POINT ( 'NONE',  ( 0.0000000000000000000, 0.0000000000000000000, 0.0000000000000000000 ) ) ;
#32 = SURFACE_STYLE_USAGE ( .BOTH. , #170 ) ;
#33 = EDGE_CURVE ( 'NONE', #146, #113, #163, .T. ) ;
#34 = CYLINDRICAL_SURFACE ( 'NONE', #199, 6.750000000000000000 ) ;
#35 = ORIENTED_EDGE ( 'NONE', *, *, #141, .T. ) ;
#36 = EDGE_CURVE ( 'NONE', #122, #15, #188, .T. ) ;
#37 = ORIENTED_EDGE ( 'NONE', *, *, #175, .T. ) ;
#38 = ADVANCED_FACE ( 'NONE', ( #155, #4 ), #46, .T. ) ;
#39 = ORIENTED_EDGE ( 'NONE', *, *, #73, .F. ) ;
#40 = UNCERTAINTY_MEASURE_WITH_UNIT (LENGTH_MEASURE( 1.000000000000000082E-05 ), #16, 'distance_accuracy_value', 'NONE');
#41 = CARTESIAN_POINT ( 'NONE',  ( 0.0000000000000000000, 0.0000000000000000000, 0.0000000000000000000 ) ) ;
#42 = VECTOR ( 'NONE', #150, 1000.000000000000000 ) ;
#43 = FACE_BOUND ( 'NONE', #198, .T. ) ;
#44 = CARTESIAN_POINT ( 'NONE',  ( 6.750000000000000000, 8.266365894244634333E-16, 4.000000000000000000 ) ) ;
#45 = DIRECTION ( 'NONE',  ( 1.000000000000000000, 0.0000000000000000000, 0.0000000000000000000 ) ) ;
#46 = PLANE ( 'NONE',  #106 ) ;
#47 =( NAMED_UNIT ( * ) PLANE_ANGLE_UNIT ( ) SI_UNIT ( $, .RADIAN. ) );
#48 = EDGE_CURVE ( 'NONE', #113, #146, #74, .T. ) ;
#49 = CYLINDRICAL_SURFACE ( 'NONE', #210, 22.00000000000000000 ) ;
#50 = DIRECTION ( 'NONE',  ( 0.0000000000000000000, 0.0000000000000000000, 1.000000000000000000 ) ) ;
#51 = CARTESIAN_POINT ( 'NONE',  ( -6.750000000000000000, 0.0000000000000000000, 4.000000000000000000 ) ) ;
#52 =( GEOMETRIC_REPRESENTATION_CONTEXT ( 3 ) GLOBAL_UNCERTAINTY_ASSIGNED_CONTEXT ( ( #58 ) ) GLOBAL_UNIT_ASSIGNED_CONTEXT ( ( #98, #187, #100 ) ) REPRESENTATION_CONTEXT ( 'NONE', 'WORKASPACE' ) );
#53 = VECTOR ( 'NONE', #94, 1000.000000000000000 ) ;
#54 = APPLICATION_CONTEXT ( 'automotive_design' ) ;
#55 = PRODUCT_DEFINITION_SHAPE ( 'NONE', 'NONE',  #205 ) ;
#56 = COLOUR_RGB ( '',0.6470588235294117974, 0.6196078431372549211, 0.5882352941176470784 ) ;
#57 = EDGE_LOOP ( 'NONE', ( #207, #76 ) ) ;
#58 = UNCERTAINTY_MEASURE_WITH_UNIT (LENGTH_MEASURE( 1.000000000000000082E-05 ), #98, 'distance_accuracy_value', 'NONE');
#59 = CLOSED_SHELL ( 'NONE', ( #125, #75, #38, #177, #212, #142 ) ) ;
#60 = EDGE_CURVE ( 'NONE', #13, #146, #88, .T. ) ;
#61 = CARTESIAN_POINT ( 'NONE',  ( 6.750000000000000000, 8.266365894244634333E-16, 4.000000000000000000 ) ) ;
#62 = ORIENTED_EDGE ( 'NONE', *, *, #60, .F. ) ;
#63 = STYLED_ITEM ( 'NONE', ( #143 ), #123 ) ;
#64 = DIRECTION ( 'NONE',  ( 1.000000000000000000, 0.0000000000000000000, 0.0000000000000000000 ) ) ;
#65 = PRESENTATION_STYLE_ASSIGNMENT (( #20 ) ) ;
#66 = CARTESIAN_POINT ( 'NONE',  ( 0.0000000000000000000, 0.0000000000000000000, 4.000000000000000000 ) ) ;
#67 = DIRECTION ( 'NONE',  ( 0.0000000000000000000, 0.0000000000000000000, 1.000000000000000000 ) ) ;
#68 = AXIS2_PLACEMENT_3D ( 'NONE', #78, #202, #81 ) ;
#69 = CARTESIAN_POINT ( 'NONE',  ( 0.0000000000000000000, 0.0000000000000000000, 0.0000000000000000000 ) ) ;
#70 = FACE_OUTER_BOUND ( 'NONE', #29, .T. ) ;
#71 = FILL_AREA_STYLE ('',( #119 ) ) ;
#72 = ORIENTED_EDGE ( 'NONE', *, *, #179, .F. ) ;
#73 = EDGE_CURVE ( 'NONE', #122, #174, #21, .T. ) ;
#74 = CIRCLE ( 'NONE', #127, 6.750000000000000000 ) ;
#75 = ADVANCED_FACE ( 'NONE', ( #131 ), #49, .T. ) ;
#76 = ORIENTED_EDGE ( 'NONE', *, *, #175, .F. ) ;
#77 = ORIENTED_EDGE ( 'NONE', *, *, #73, .T. ) ;
#78 = CARTESIAN_POINT ( 'NONE',  ( 0.0000000000000000000, 0.0000000000000000000, 0.0000000000000000000 ) ) ;
#79 = SURFACE_STYLE_FILL_AREA ( #149 ) ;
#80 = CARTESIAN_POINT ( 'NONE',  ( 6.750000000000000000, 8.266365894244634333E-16, 0.0000000000000000000 ) ) ;
#81 = DIRECTION ( 'NONE',  ( 1.000000000000000000, 0.0000000000000000000, 0.0000000000000000000 ) ) ;
#82 = AXIS2_PLACEMENT_3D ( 'NONE', #25, #2, #200 ) ;
#83 = DIRECTION ( 'NONE',  ( 1.000000000000000000, 0.0000000000000000000, 0.0000000000000000000 ) ) ;
#84 = FILL_AREA_STYLE_COLOUR ( '', #56 ) ;
#85 = DIRECTION ( 'NONE',  ( -0.0000000000000000000, -0.0000000000000000000, -1.000000000000000000 ) ) ;
#86 = DIRECTION ( 'NONE',  ( 0.0000000000000000000, 0.0000000000000000000, 1.000000000000000000 ) ) ;
#87 = VECTOR ( 'NONE', #111, 1000.000000000000000 ) ;
#88 = LINE ( 'NONE', #44, #87 ) ;
#89 = MECHANICAL_DESIGN_GEOMETRIC_PRESENTATION_REPRESENTATION (  '', ( #63 ), #124 ) ;
#90 = FACE_OUTER_BOUND ( 'NONE', #148, .T. ) ;
#91 = EDGE_CURVE ( 'NONE', #15, #194, #1, .T. ) ;
#92 = LINE ( 'NONE', #133, #42 ) ;
#93 = ORIENTED_EDGE ( 'NONE', *, *, #201, .T. ) ;
#94 = DIRECTION ( 'NONE',  ( -0.0000000000000000000, -0.0000000000000000000, -1.000000000000000000 ) ) ;
#95 = STYLED_ITEM ( 'NONE', ( #65 ), #204 ) ;
#96 = DIRECTION ( 'NONE',  ( -1.000000000000000000, 0.0000000000000000000, 0.0000000000000000000 ) ) ;
#97 = CARTESIAN_POINT ( 'NONE',  ( -22.00000000000000000, 0.0000000000000000000, 4.000000000000000000 ) ) ;
#98 =( LENGTH_UNIT ( ) NAMED_UNIT ( * ) SI_UNIT ( .MILLI., .METRE. ) );
#99 = AXIS2_PLACEMENT_3D ( 'NONE', #31, #86, #23 ) ;
#100 =( NAMED_UNIT ( * ) SI_UNIT ( $, .STERADIAN. ) SOLID_ANGLE_UNIT ( ) );
#101 = DIRECTION ( 'NONE',  ( 0.0000000000000000000, 0.0000000000000000000, 1.000000000000000000 ) ) ;
#102 = EDGE_CURVE ( 'NONE', #162, #13, #136, .T. ) ;
#103 = ORIENTED_EDGE ( 'NONE', *, *, #36, .F. ) ;
#104 = FACE_OUTER_BOUND ( 'NONE', #176, .T. ) ;
#105 = ORIENTED_EDGE ( 'NONE', *, *, #141, .F. ) ;
#106 = AXIS2_PLACEMENT_3D ( 'NONE', #181, #145, #184 ) ;
#107 =( NAMED_UNIT ( * ) SI_UNIT ( $, .STERADIAN. ) SOLID_ANGLE_UNIT ( ) );
#108 = CIRCLE ( 'NONE', #172, 6.750000000000000000 ) ;
#109 = EDGE_CURVE ( 'NONE', #194, #15, #14, .T. ) ;
#110 = DIRECTION ( 'NONE',  ( 0.0000000000000000000, 0.0000000000000000000, 1.000000000000000000 ) ) ;
#111 = DIRECTION ( 'NONE',  ( -0.0000000000000000000, -0.0000000000000000000, -1.000000000000000000 ) ) ;
#112 = SHAPE_DEFINITION_REPRESENTATION ( #55, #204 ) ;
#113 = VERTEX_POINT ( 'NONE', #203 ) ;
#114 = CARTESIAN_POINT ( 'NONE',  ( 0.0000000000000000000, 0.0000000000000000000, 4.000000000000000000 ) ) ;
#115 = DIRECTION ( 'NONE',  ( -1.000000000000000000, 0.0000000000000000000, 0.0000000000000000000 ) ) ;
#116 = CARTESIAN_POINT ( 'NONE',  ( 0.0000000000000000000, 0.0000000000000000000, 4.000000000000000000 ) ) ;
#117 = AXIS2_PLACEMENT_3D ( 'NONE', #114, #147, #64 ) ;
#118 = ORIENTED_EDGE ( 'NONE', *, *, #109, .F. ) ;
#119 = FILL_AREA_STYLE_COLOUR ( '', #191 ) ;
#120 = PRESENTATION_LAYER_ASSIGNMENT (  '', '', ( #95 ) ) ;
#121 = ORIENTED_EDGE ( 'NONE', *, *, #48, .F. ) ;
#122 = VERTEX_POINT ( 'NONE', #7 ) ;
#123 = MANIFOLD_SOLID_BREP ( 'Austragung', #59 ) ;
#124 =( GEOMETRIC_REPRESENTATION_CONTEXT ( 3 ) GLOBAL_UNCERTAINTY_ASSIGNED_CONTEXT ( ( #40 ) ) GLOBAL_UNIT_ASSIGNED_CONTEXT ( ( #16, #47, #167 ) ) REPRESENTATION_CONTEXT ( 'NONE', 'WORKASPACE' ) );
#125 = ADVANCED_FACE ( 'NONE', ( #90 ), #34, .F. ) ;
#126 =( LENGTH_UNIT ( ) NAMED_UNIT ( * ) SI_UNIT ( .MILLI., .METRE. ) );
#127 = AXIS2_PLACEMENT_3D ( 'NONE', #41, #110, #45 ) ;
#128 = ORIENTED_EDGE ( 'NONE', *, *, #60, .T. ) ;
#129 = CARTESIAN_POINT ( 'NONE',  ( 0.0000000000000000000, 0.0000000000000000000, 4.000000000000000000 ) ) ;
#130 = AXIS2_PLACEMENT_3D ( 'NONE', #66, #85, #151 ) ;
#131 = FACE_OUTER_BOUND ( 'NONE', #178, .T. ) ;
#132 = ORIENTED_EDGE ( 'NONE', *, *, #33, .T. ) ;
#133 = CARTESIAN_POINT ( 'NONE',  ( -6.750000000000000000, 0.0000000000000000000, 4.000000000000000000 ) ) ;
#134 = DIRECTION ( 'NONE',  ( 1.000000000000000000, 0.0000000000000000000, -0.0000000000000000000 ) ) ;
#135 = CARTESIAN_POINT ( 'NONE',  ( 0.0000000000000000000, 0.0000000000000000000, 4.000000000000000000 ) ) ;
#136 = CIRCLE ( 'NONE', #166, 6.750000000000000000 ) ;
#137 = CARTESIAN_POINT ( 'NONE',  ( -22.00000000000000000, 0.0000000000000000000, 0.0000000000000000000 ) ) ;
#138 = APPLICATION_CONTEXT ( 'automotive_design' ) ;
#139 = ORIENTED_EDGE ( 'NONE', *, *, #48, .T. ) ;
#140 = ORIENTED_EDGE ( 'NONE', *, *, #91, .T. ) ;
#141 = EDGE_CURVE ( 'NONE', #174, #194, #26, .T. ) ;
#142 = ADVANCED_FACE ( 'NONE', ( #70 ), #12, .F. ) ;
#143 = PRESENTATION_STYLE_ASSIGNMENT (( #32 ) ) ;
#144 =( GEOMETRIC_REPRESENTATION_CONTEXT ( 3 ) GLOBAL_UNCERTAINTY_ASSIGNED_CONTEXT ( ( #22 ) ) GLOBAL_UNIT_ASSIGNED_CONTEXT ( ( #126, #173, #107 ) ) REPRESENTATION_CONTEXT ( 'NONE', 'WORKASPACE' ) );
#145 = DIRECTION ( 'NONE',  ( 0.0000000000000000000, 0.0000000000000000000, 1.000000000000000000 ) ) ;
#146 = VERTEX_POINT ( 'NONE', #80 ) ;
#147 = DIRECTION ( 'NONE',  ( 0.0000000000000000000, 0.0000000000000000000, 1.000000000000000000 ) ) ;
#148 = EDGE_LOOP ( 'NONE', ( #183, #128, #121, #72 ) ) ;
#149 = FILL_AREA_STYLE ('',( #84 ) ) ;
#150 = DIRECTION ( 'NONE',  ( -0.0000000000000000000, -0.0000000000000000000, -1.000000000000000000 ) ) ;
#151 = DIRECTION ( 'NONE',  ( -1.000000000000000000, 0.0000000000000000000, 0.0000000000000000000 ) ) ;
#152 = AXIS2_PLACEMENT_3D ( 'NONE', #69, #50, #6 ) ;
#153 = CARTESIAN_POINT ( 'NONE',  ( 0.0000000000000000000, 0.0000000000000000000, 4.000000000000000000 ) ) ;
#154 = DIRECTION ( 'NONE',  ( -0.0000000000000000000, -0.0000000000000000000, -1.000000000000000000 ) ) ;
#155 = FACE_OUTER_BOUND ( 'NONE', #209, .T. ) ;
#156 = APPLICATION_PROTOCOL_DEFINITION ( 'draft international standard', 'automotive_design', 1998, #138 ) ;
#157 = SURFACE_SIDE_STYLE ('',( #193 ) ) ;
#158 = CIRCLE ( 'NONE', #196, 22.00000000000000000 ) ;
#159 = FACE_OUTER_BOUND ( 'NONE', #214, .T. ) ;
#160 = AXIS2_PLACEMENT_3D ( 'NONE', #5, #9, #115 ) ;
#161 = PRODUCT ( '6408739', '6408739', '', ( #11 ) ) ;
#162 = VERTEX_POINT ( 'NONE', #51 ) ;
#163 = CIRCLE ( 'NONE', #82, 6.750000000000000000 ) ;
#164 = ORIENTED_EDGE ( 'NONE', *, *, #36, .T. ) ;
#165 = CARTESIAN_POINT ( 'NONE',  ( 22.00000000000000000, 2.694222958124176809E-15, 0.0000000000000000000 ) ) ;
#166 = AXIS2_PLACEMENT_3D ( 'NONE', #116, #67, #168 ) ;
#167 =( NAMED_UNIT ( * ) SI_UNIT ( $, .STERADIAN. ) SOLID_ANGLE_UNIT ( ) );
#168 = DIRECTION ( 'NONE',  ( 1.000000000000000000, 0.0000000000000000000, 0.0000000000000000000 ) ) ;
#169 = CARTESIAN_POINT ( 'NONE',  ( 0.0000000000000000000, 0.0000000000000000000, 4.000000000000000000 ) ) ;
#170 = SURFACE_SIDE_STYLE ('',( #79 ) ) ;
#171 = CYLINDRICAL_SURFACE ( 'NONE', #130, 22.00000000000000000 ) ;
#172 = AXIS2_PLACEMENT_3D ( 'NONE', #169, #101, #83 ) ;
#173 =( NAMED_UNIT ( * ) PLANE_ANGLE_UNIT ( ) SI_UNIT ( $, .RADIAN. ) );
#174 = VERTEX_POINT ( 'NONE', #97 ) ;
#175 = EDGE_CURVE ( 'NONE', #13, #162, #108, .T. ) ;
#176 = EDGE_LOOP ( 'NONE', ( #103, #180, #35, #192 ) ) ;
#177 = ADVANCED_FACE ( 'NONE', ( #159, #43 ), #190, .F. ) ;
#178 = EDGE_LOOP ( 'NONE', ( #39, #164, #140, #105 ) ) ;
#179 = EDGE_CURVE ( 'NONE', #162, #113, #92, .T. ) ;
#180 = ORIENTED_EDGE ( 'NONE', *, *, #201, .F. ) ;
#181 = CARTESIAN_POINT ( 'NONE',  ( 0.0000000000000000000, 0.0000000000000000000, 4.000000000000000000 ) ) ;
#182 = CARTESIAN_POINT ( 'NONE',  ( 22.00000000000000000, 2.694222958124176809E-15, 4.000000000000000000 ) ) ;
#183 = ORIENTED_EDGE ( 'NONE', *, *, #102, .T. ) ;
#184 = DIRECTION ( 'NONE',  ( 1.000000000000000000, 0.0000000000000000000, -0.0000000000000000000 ) ) ;
#185 = DIRECTION ( 'NONE',  ( -1.000000000000000000, 0.0000000000000000000, 0.0000000000000000000 ) ) ;
#186 = DIRECTION ( 'NONE',  ( -0.0000000000000000000, -0.0000000000000000000, -1.000000000000000000 ) ) ;
#187 =( NAMED_UNIT ( * ) PLANE_ANGLE_UNIT ( ) SI_UNIT ( $, .RADIAN. ) );
#188 = LINE ( 'NONE', #182, #53 ) ;
#189 = PRESENTATION_LAYER_ASSIGNMENT (  '', '', ( #63 ) ) ;
#190 = PLANE ( 'NONE',  #3 ) ;
#191 = COLOUR_RGB ( '',0.6470588235294117974, 0.6196078431372549211, 0.5882352941176470784 ) ;
#192 = ORIENTED_EDGE ( 'NONE', *, *, #109, .T. ) ;
#193 = SURFACE_STYLE_FILL_AREA ( #71 ) ;
#194 = VERTEX_POINT ( 'NONE', #137 ) ;
#195 = PRODUCT_DEFINITION_FORMATION_WITH_SPECIFIED_SOURCE ( 'ANY', '', #161, .NOT_KNOWN. ) ;
#196 = AXIS2_PLACEMENT_3D ( 'NONE', #135, #206, #30 ) ;
#197 = ORIENTED_EDGE ( 'NONE', *, *, #33, .F. ) ;
#198 = EDGE_LOOP ( 'NONE', ( #139, #132 ) ) ;
#199 = AXIS2_PLACEMENT_3D ( 'NONE', #153, #154, #185 ) ;
#200 = DIRECTION ( 'NONE',  ( 1.000000000000000000, 0.0000000000000000000, 0.0000000000000000000 ) ) ;
#201 = EDGE_CURVE ( 'NONE', #174, #122, #158, .T. ) ;
#202 = DIRECTION ( 'NONE',  ( 0.0000000000000000000, 0.0000000000000000000, 1.000000000000000000 ) ) ;
#203 = CARTESIAN_POINT ( 'NONE',  ( -6.750000000000000000, 0.0000000000000000000, 0.0000000000000000000 ) ) ;
#204 = ADVANCED_BREP_SHAPE_REPRESENTATION ( '6408739', ( #123, #99 ), #52 ) ;
#205 = PRODUCT_DEFINITION ( 'UNKNOWN', '', #195, #208 ) ;
#206 = DIRECTION ( 'NONE',  ( 0.0000000000000000000, 0.0000000000000000000, 1.000000000000000000 ) ) ;
#207 = ORIENTED_EDGE ( 'NONE', *, *, #102, .F. ) ;
#208 = PRODUCT_DEFINITION_CONTEXT ( 'detailed design', #138, 'design' ) ;
#209 = EDGE_LOOP ( 'NONE', ( #93, #77 ) ) ;
#210 = AXIS2_PLACEMENT_3D ( 'NONE', #129, #27, #96 ) ;
#211 = ORIENTED_EDGE ( 'NONE', *, *, #179, .T. ) ;
#212 = ADVANCED_FACE ( 'NONE', ( #104 ), #171, .T. ) ;
#213 = MECHANICAL_DESIGN_GEOMETRIC_PRESENTATION_REPRESENTATION (  '', ( #95 ), #144 ) ;
#214 = EDGE_LOOP ( 'NONE', ( #118, #18 ) ) ;
ENDSEC;
END-ISO-10303-21;
