ISO-10303-21;
HEADER;
FILE_DESCRIPTION (( 'STEP AP214' ),
    '1' );
FILE_NAME ('7205462.STEP',
    '2020-05-08T06:34:04',
    ( '' ),
    ( '' ),
    'SwSTEP 2.0',
    'SolidWorks 2018',
    '' );
FILE_SCHEMA (( 'AUTOMOTIVE_DESIGN' ));
ENDSEC;

DATA;
#1 = ORIENTED_EDGE ( 'NONE', *, *, #74, .T. ) ;
#2 = CARTESIAN_POINT ( 'NONE',  ( 59.99999999999999289, 95.00000000000000000, -10.00000000000000000 ) ) ;
#3 = ORIENTED_EDGE ( 'NONE', *, *, #84, .F. ) ;
#4 = ORIENTED_EDGE ( 'NONE', *, *, #79, .F. ) ;
#5 = MECHANICAL_DESIGN_GEOMETRIC_PRESENTATION_REPRESENTATION (  '', ( #299 ), #103 ) ;
#6 = PRODUCT_DEFINITION_CONTEXT ( 'detailed design', #168, 'design' ) ;
#7 = FILL_AREA_STYLE ('',( #348 ) ) ;
#8 = DIRECTION ( 'NONE',  ( -0.0000000000000000000, 0.0000000000000000000, 1.000000000000000000 ) ) ;
#9 =( LENGTH_UNIT ( ) NAMED_UNIT ( * ) SI_UNIT ( .MILLI., .METRE. ) );
#10 = CARTESIAN_POINT ( 'NONE',  ( 59.99999999999999289, 95.00000000000000000, -10.00000000000000000 ) ) ;
#11 = LINE ( 'NONE', #159, #331 ) ;
#12 = VERTEX_POINT ( 'NONE', #2 ) ;
#13 = DIRECTION ( 'NONE',  ( 0.0000000000000000000, 0.0000000000000000000, 1.000000000000000000 ) ) ;
#14 = EDGE_CURVE ( 'NONE', #241, #39, #55, .T. ) ;
#15 = CYLINDRICAL_SURFACE ( 'NONE', #213, 5.499999999999998224 ) ;
#16 =( GEOMETRIC_REPRESENTATION_CONTEXT ( 3 ) GLOBAL_UNCERTAINTY_ASSIGNED_CONTEXT ( ( #80 ) ) GLOBAL_UNIT_ASSIGNED_CONTEXT ( ( #195, #309, #47 ) ) REPRESENTATION_CONTEXT ( 'NONE', 'WORKASPACE' ) );
#17 = SURFACE_STYLE_FILL_AREA ( #49 ) ;
#18 = EDGE_CURVE ( 'NONE', #327, #128, #72, .T. ) ;
#19 = VERTEX_POINT ( 'NONE', #222 ) ;
#20 = EDGE_CURVE ( 'NONE', #327, #19, #238, .T. ) ;
#21 = PRESENTATION_STYLE_ASSIGNMENT (( #390 ) ) ;
#22 = STYLED_ITEM ( 'NONE', ( #262 ), #305 ) ;
#23 = VERTEX_POINT ( 'NONE', #149 ) ;
#24 = DIRECTION ( 'NONE',  ( -0.0000000000000000000, -0.0000000000000000000, 1.000000000000000000 ) ) ;
#25 = FACE_OUTER_BOUND ( 'NONE', #139, .T. ) ;
#26 = AXIS2_PLACEMENT_3D ( 'NONE', #285, #13, #99 ) ;
#27 = LINE ( 'NONE', #67, #333 ) ;
#28 = COLOUR_RGB ( '',0.7529411764705882248, 0.7529411764705882248, 0.7529411764705882248 ) ;
#29 = UNCERTAINTY_MEASURE_WITH_UNIT (LENGTH_MEASURE( 1.000000000000000082E-05 ), #104, 'distance_accuracy_value', 'NONE');
#30 = SURFACE_STYLE_FILL_AREA ( #56 ) ;
#31 = LINE ( 'NONE', #211, #181 ) ;
#32 = ADVANCED_FACE ( 'NONE', ( #280 ), #15, .F. ) ;
#33 = CARTESIAN_POINT ( 'NONE',  ( 59.99999999999999289, 95.00000000000000000, 10.00000000000000000 ) ) ;
#34 = DIRECTION ( 'NONE',  ( -0.0000000000000000000, 0.0000000000000000000, 1.000000000000000000 ) ) ;
#35 = ADVANCED_FACE ( 'NONE', ( #25 ), #61, .F. ) ;
#36 = FILL_AREA_STYLE ('',( #176 ) ) ;
#37 = AXIS2_PLACEMENT_3D ( 'NONE', #33, #368, #247 ) ;
#38 = SURFACE_SIDE_STYLE ('',( #296 ) ) ;
#39 = VERTEX_POINT ( 'NONE', #250 ) ;
#40 = EDGE_CURVE ( 'NONE', #128, #327, #384, .T. ) ;
#41 = CARTESIAN_POINT ( 'NONE',  ( 59.99999999999999289, 95.00000000000000000, 10.00000000000000000 ) ) ;
#42 =( LENGTH_UNIT ( ) NAMED_UNIT ( * ) SI_UNIT ( .MILLI., .METRE. ) );
#43 = CARTESIAN_POINT ( 'NONE',  ( 59.99999999999999289, 95.00000000000000000, -10.00000000000000000 ) ) ;
#44 = CARTESIAN_POINT ( 'NONE',  ( 60.00000000000001421, -94.99999999999998579, 10.00000000000000000 ) ) ;
#45 = DIRECTION ( 'NONE',  ( -0.0000000000000000000, -0.0000000000000000000, 1.000000000000000000 ) ) ;
#46 = MANIFOLD_SOLID_BREP ( 'Extrude2', #303 ) ;
#47 =( NAMED_UNIT ( * ) SI_UNIT ( $, .STERADIAN. ) SOLID_ANGLE_UNIT ( ) );
#48 = DIRECTION ( 'NONE',  ( -1.000000000000000000, -2.312964634635742957E-16, 0.0000000000000000000 ) ) ;
#49 = FILL_AREA_STYLE ('',( #376 ) ) ;
#50 = FACE_BOUND ( 'NONE', #292, .T. ) ;
#51 = AXIS2_PLACEMENT_3D ( 'NONE', #41, #122, #315 ) ;
#52 = COLOUR_RGB ( '',0.7529411764705882248, 0.7529411764705882248, 0.7529411764705882248 ) ;
#53 = STYLED_ITEM ( 'NONE', ( #392 ), #87 ) ;
#54 = APPLICATION_CONTEXT ( 'automotive_design' ) ;
#55 = LINE ( 'NONE', #251, #276 ) ;
#56 = FILL_AREA_STYLE ('',( #204 ) ) ;
#57 = DIRECTION ( 'NONE',  ( -0.0000000000000000000, -0.0000000000000000000, -1.000000000000000000 ) ) ;
#58 = FACE_OUTER_BOUND ( 'NONE', #95, .T. ) ;
#59 = SURFACE_STYLE_FILL_AREA ( #92 ) ;
#60 =( GEOMETRIC_REPRESENTATION_CONTEXT ( 3 ) GLOBAL_UNCERTAINTY_ASSIGNED_CONTEXT ( ( #363 ) ) GLOBAL_UNIT_ASSIGNED_CONTEXT ( ( #311, #350, #120 ) ) REPRESENTATION_CONTEXT ( 'NONE', 'WORKASPACE' ) );
#61 = PLANE ( 'NONE',  #358 ) ;
#62 = VERTEX_POINT ( 'NONE', #351 ) ;
#63 = CARTESIAN_POINT ( 'NONE',  ( 0.0000000000000000000, 0.0000000000000000000, -10.00000000000000000 ) ) ;
#64 = PLANE ( 'NONE',  #117 ) ;
#65 = FILL_AREA_STYLE ('',( #279 ) ) ;
#66 = DIRECTION ( 'NONE',  ( 0.0000000000000000000, 0.0000000000000000000, -1.000000000000000000 ) ) ;
#67 = CARTESIAN_POINT ( 'NONE',  ( -60.00000000000002132, 94.99999999999997158, 10.00000000000000000 ) ) ;
#68 = DIRECTION ( 'NONE',  ( -0.0000000000000000000, -0.0000000000000000000, 1.000000000000000000 ) ) ;
#69 = DIRECTION ( 'NONE',  ( 1.095614826932720348E-16, -1.000000000000000000, 0.0000000000000000000 ) ) ;
#70 = PRESENTATION_LAYER_ASSIGNMENT (  '', '', ( #248 ) ) ;
#71 = EDGE_CURVE ( 'NONE', #19, #77, #395, .T. ) ;
#72 = CIRCLE ( 'NONE', #360, 5.499999999999998224 ) ;
#73 = EDGE_LOOP ( 'NONE', ( #182, #161, #140, #169 ) ) ;
#74 = EDGE_CURVE ( 'NONE', #241, #23, #141, .T. ) ;
#75 =( GEOMETRIC_REPRESENTATION_CONTEXT ( 3 ) GLOBAL_UNCERTAINTY_ASSIGNED_CONTEXT ( ( #302 ) ) GLOBAL_UNIT_ASSIGNED_CONTEXT ( ( #387, #207, #109 ) ) REPRESENTATION_CONTEXT ( 'NONE', 'WORKASPACE' ) );
#76 = ORIENTED_EDGE ( 'NONE', *, *, #71, .F. ) ;
#77 = VERTEX_POINT ( 'NONE', #228 ) ;
#78 = PLANE ( 'NONE',  #51 ) ;
#79 = EDGE_CURVE ( 'NONE', #39, #116, #11, .T. ) ;
#80 = UNCERTAINTY_MEASURE_WITH_UNIT (LENGTH_MEASURE( 1.000000000000000082E-05 ), #195, 'distance_accuracy_value', 'NONE');
#81 = PRESENTATION_STYLE_ASSIGNMENT (( #193 ) ) ;
#82 = ORIENTED_EDGE ( 'NONE', *, *, #388, .F. ) ;
#83 = VECTOR ( 'NONE', #98, 1000.000000000000000 ) ;
#84 = EDGE_CURVE ( 'NONE', #62, #23, #364, .T. ) ;
#85 = PRESENTATION_STYLE_ASSIGNMENT (( #93 ) ) ;
#86 = SURFACE_STYLE_FILL_AREA ( #312 ) ;
#87 = ADVANCED_FACE ( 'NONE', ( #134 ), #340, .F. ) ;
#88 = CARTESIAN_POINT ( 'NONE',  ( 0.0000000000000000000, 34.99999999999999289, -10.00000000000000000 ) ) ;
#89 = STYLED_ITEM ( 'NONE', ( #144 ), #151 ) ;
#90 = DIRECTION ( 'NONE',  ( 1.000000000000000000, 0.0000000000000000000, 0.0000000000000000000 ) ) ;
#91 = VECTOR ( 'NONE', #223, 1000.000000000000000 ) ;
#92 = FILL_AREA_STYLE ('',( #284 ) ) ;
#93 = SURFACE_STYLE_USAGE ( .BOTH. , #220 ) ;
#94 =( NAMED_UNIT ( * ) SI_UNIT ( $, .STERADIAN. ) SOLID_ANGLE_UNIT ( ) );
#95 = EDGE_LOOP ( 'NONE', ( #114, #322, #380, #82 ) ) ;
#96 = FILL_AREA_STYLE_COLOUR ( '', #129 ) ;
#97 = EDGE_CURVE ( 'NONE', #150, #241, #31, .T. ) ;
#98 = DIRECTION ( 'NONE',  ( -0.0000000000000000000, -0.0000000000000000000, 1.000000000000000000 ) ) ;
#99 = DIRECTION ( 'NONE',  ( 1.000000000000000000, 0.0000000000000000000, 0.0000000000000000000 ) ) ;
#100 = DIRECTION ( 'NONE',  ( 1.000000000000000000, 0.0000000000000000000, 0.0000000000000000000 ) ) ;
#101 = AXIS2_PLACEMENT_3D ( 'NONE', #63, #66, #313 ) ;
#102 = FILL_AREA_STYLE ('',( #230 ) ) ;
#103 =( GEOMETRIC_REPRESENTATION_CONTEXT ( 3 ) GLOBAL_UNCERTAINTY_ASSIGNED_CONTEXT ( ( #226 ) ) GLOBAL_UNIT_ASSIGNED_CONTEXT ( ( #375, #282, #94 ) ) REPRESENTATION_CONTEXT ( 'NONE', 'WORKASPACE' ) );
#104 =( LENGTH_UNIT ( ) NAMED_UNIT ( * ) SI_UNIT ( .MILLI., .METRE. ) );
#105 = EDGE_LOOP ( 'NONE', ( #178, #355, #264, #133 ) ) ;
#106 =( NAMED_UNIT ( * ) SI_UNIT ( $, .STERADIAN. ) SOLID_ANGLE_UNIT ( ) );
#107 = SURFACE_SIDE_STYLE ('',( #30 ) ) ;
#108 = ORIENTED_EDGE ( 'NONE', *, *, #145, .F. ) ;
#109 =( NAMED_UNIT ( * ) SI_UNIT ( $, .STERADIAN. ) SOLID_ANGLE_UNIT ( ) );
#110 = SURFACE_STYLE_FILL_AREA ( #65 ) ;
#111 = EDGE_CURVE ( 'NONE', #39, #12, #287, .T. ) ;
#112 = FACE_OUTER_BOUND ( 'NONE', #265, .T. ) ;
#113 = MECHANICAL_DESIGN_GEOMETRIC_PRESENTATION_REPRESENTATION (  '', ( #275 ), #270 ) ;
#114 = ORIENTED_EDGE ( 'NONE', *, *, #18, .F. ) ;
#115 = COLOUR_RGB ( '',0.7529411764705882248, 0.7529411764705882248, 0.7529411764705882248 ) ;
#116 = VERTEX_POINT ( 'NONE', #217 ) ;
#117 = AXIS2_PLACEMENT_3D ( 'NONE', #314, #125, #188 ) ;
#118 = ADVANCED_FACE ( 'NONE', ( #246 ), #78, .F. ) ;
#119 = PRESENTATION_LAYER_ASSIGNMENT (  '', '', ( #53 ) ) ;
#120 =( NAMED_UNIT ( * ) SI_UNIT ( $, .STERADIAN. ) SOLID_ANGLE_UNIT ( ) );
#121 = SURFACE_SIDE_STYLE ('',( #110 ) ) ;
#122 = DIRECTION ( 'NONE',  ( -1.000000000000000000, -1.095614826932720348E-16, 0.0000000000000000000 ) ) ;
#123 = SURFACE_STYLE_USAGE ( .BOTH. , #310 ) ;
#124 = SHAPE_DEFINITION_REPRESENTATION ( #152, #151 ) ;
#125 = DIRECTION ( 'NONE',  ( 0.0000000000000000000, 0.0000000000000000000, -1.000000000000000000 ) ) ;
#126 =( GEOMETRIC_REPRESENTATION_CONTEXT ( 3 ) GLOBAL_UNCERTAINTY_ASSIGNED_CONTEXT ( ( #334 ) ) GLOBAL_UNIT_ASSIGNED_CONTEXT ( ( #9, #254, #253 ) ) REPRESENTATION_CONTEXT ( 'NONE', 'WORKASPACE' ) );
#127 = COLOUR_RGB ( '',1.000000000000000000, 1.000000000000000000, 1.000000000000000000 ) ;
#128 = VERTEX_POINT ( 'NONE', #374 ) ;
#129 = COLOUR_RGB ( '',0.7529411764705882248, 0.7529411764705882248, 0.7529411764705882248 ) ;
#130 = VECTOR ( 'NONE', #156, 1000.000000000000000 ) ;
#131 =( NAMED_UNIT ( * ) PLANE_ANGLE_UNIT ( ) SI_UNIT ( $, .RADIAN. ) );
#132 = MECHANICAL_DESIGN_GEOMETRIC_PRESENTATION_REPRESENTATION (  '', ( #89 ), #143 ) ;
#133 = ORIENTED_EDGE ( 'NONE', *, *, #227, .T. ) ;
#134 = FACE_OUTER_BOUND ( 'NONE', #170, .T. ) ;
#135 = STYLED_ITEM ( 'NONE', ( #202 ), #32 ) ;
#136 = SURFACE_SIDE_STYLE ('',( #194 ) ) ;
#137 =( GEOMETRIC_REPRESENTATION_CONTEXT ( 3 ) GLOBAL_UNCERTAINTY_ASSIGNED_CONTEXT ( ( #29 ) ) GLOBAL_UNIT_ASSIGNED_CONTEXT ( ( #104, #289, #166 ) ) REPRESENTATION_CONTEXT ( 'NONE', 'WORKASPACE' ) );
#138 = LINE ( 'NONE', #43, #240 ) ;
#139 = EDGE_LOOP ( 'NONE', ( #242, #317, #318, #326 ) ) ;
#140 = ORIENTED_EDGE ( 'NONE', *, *, #14, .T. ) ;
#141 = LINE ( 'NONE', #347, #259 ) ;
#142 = UNCERTAINTY_MEASURE_WITH_UNIT (LENGTH_MEASURE( 1.000000000000000082E-05 ), #338, 'distance_accuracy_value', 'NONE');
#143 =( GEOMETRIC_REPRESENTATION_CONTEXT ( 3 ) GLOBAL_UNCERTAINTY_ASSIGNED_CONTEXT ( ( #288 ) ) GLOBAL_UNIT_ASSIGNED_CONTEXT ( ( #201, #131, #356 ) ) REPRESENTATION_CONTEXT ( 'NONE', 'WORKASPACE' ) );
#144 = PRESENTATION_STYLE_ASSIGNMENT (( #381 ) ) ;
#145 = EDGE_CURVE ( 'NONE', #23, #12, #212, .T. ) ;
#146 = DIRECTION ( 'NONE',  ( -1.095614826932720348E-16, 1.000000000000000000, 0.0000000000000000000 ) ) ;
#147 = SURFACE_STYLE_USAGE ( .BOTH. , #307 ) ;
#148 = ADVANCED_FACE ( 'NONE', ( #50, #291 ), #64, .F. ) ;
#149 = CARTESIAN_POINT ( 'NONE',  ( 60.00000000000001421, -94.99999999999998579, -10.00000000000000000 ) ) ;
#150 = VERTEX_POINT ( 'NONE', #192 ) ;
#151 = ADVANCED_BREP_SHAPE_REPRESENTATION ( '7205462', ( #46, #172 ), #137 ) ;
#152 = PRODUCT_DEFINITION_SHAPE ( 'NONE', 'NONE',  #153 ) ;
#153 = PRODUCT_DEFINITION ( 'UNKNOWN', '', #290, #6 ) ;
#154 = DIRECTION ( 'NONE',  ( -1.000000000000000000, 0.0000000000000000000, 0.0000000000000000000 ) ) ;
#155 = DIRECTION ( 'NONE',  ( -1.000000000000000000, -3.469446951953614189E-16, 0.0000000000000000000 ) ) ;
#156 = DIRECTION ( 'NONE',  ( -1.095614826932720348E-16, 1.000000000000000000, -0.0000000000000000000 ) ) ;
#157 = CARTESIAN_POINT ( 'NONE',  ( -60.00000000000002132, 94.99999999999997158, 10.00000000000000000 ) ) ;
#158 = PRESENTATION_LAYER_ASSIGNMENT (  '', '', ( #383 ) ) ;
#159 = CARTESIAN_POINT ( 'NONE',  ( 59.99999999999999289, 95.00000000000000000, 10.00000000000000000 ) ) ;
#160 = VERTEX_POINT ( 'NONE', #345 ) ;
#161 = ORIENTED_EDGE ( 'NONE', *, *, #97, .T. ) ;
#162 = DIRECTION ( 'NONE',  ( -3.469446951953614189E-16, 1.000000000000000000, 0.0000000000000000000 ) ) ;
#163 = COLOUR_RGB ( '',0.7529411764705882248, 0.7529411764705882248, 0.7529411764705882248 ) ;
#164 = DIRECTION ( 'NONE',  ( -1.000000000000000000, -2.312964634635742957E-16, 0.0000000000000000000 ) ) ;
#165 = ORIENTED_EDGE ( 'NONE', *, *, #74, .F. ) ;
#166 =( NAMED_UNIT ( * ) SI_UNIT ( $, .STERADIAN. ) SOLID_ANGLE_UNIT ( ) );
#167 = MECHANICAL_DESIGN_GEOMETRIC_PRESENTATION_REPRESENTATION (  '', ( #199 ), #267 ) ;
#168 = APPLICATION_CONTEXT ( 'automotive_design' ) ;
#169 = ORIENTED_EDGE ( 'NONE', *, *, #79, .T. ) ;
#170 = EDGE_LOOP ( 'NONE', ( #214, #396, #4, #269 ) ) ;
#171 = DIRECTION ( 'NONE',  ( 1.000000000000000000, 0.0000000000000000000, 0.0000000000000000000 ) ) ;
#172 = AXIS2_PLACEMENT_3D ( 'NONE', #263, #232, #100 ) ;
#173 = SURFACE_STYLE_FILL_AREA ( #300 ) ;
#174 = PRESENTATION_LAYER_ASSIGNMENT (  '', '', ( #135 ) ) ;
#175 = ORIENTED_EDGE ( 'NONE', *, *, #84, .T. ) ;
#176 = FILL_AREA_STYLE_COLOUR ( '', #361 ) ;
#177 = MECHANICAL_DESIGN_GEOMETRIC_PRESENTATION_REPRESENTATION (  '', ( #383 ), #60 ) ;
#178 = ORIENTED_EDGE ( 'NONE', *, *, #20, .F. ) ;
#179 = FACE_BOUND ( 'NONE', #378, .T. ) ;
#180 =( GEOMETRIC_REPRESENTATION_CONTEXT ( 3 ) GLOBAL_UNCERTAINTY_ASSIGNED_CONTEXT ( ( #304 ) ) GLOBAL_UNIT_ASSIGNED_CONTEXT ( ( #369, #281, #256 ) ) REPRESENTATION_CONTEXT ( 'NONE', 'WORKASPACE' ) );
#181 = VECTOR ( 'NONE', #366, 1000.000000000000000 ) ;
#182 = ORIENTED_EDGE ( 'NONE', *, *, #373, .T. ) ;
#183 =( NAMED_UNIT ( * ) PLANE_ANGLE_UNIT ( ) SI_UNIT ( $, .RADIAN. ) );
#184 =( NAMED_UNIT ( * ) PLANE_ANGLE_UNIT ( ) SI_UNIT ( $, .RADIAN. ) );
#185 = CARTESIAN_POINT ( 'NONE',  ( 0.0000000000000000000, 34.99999999999999289, -10.00099999999999767 ) ) ;
#186 = CARTESIAN_POINT ( 'NONE',  ( -60.00000000000002132, 94.99999999999997158, -10.00000000000000000 ) ) ;
#187 = MECHANICAL_DESIGN_GEOMETRIC_PRESENTATION_REPRESENTATION (  '', ( #53 ), #233 ) ;
#188 = DIRECTION ( 'NONE',  ( -1.000000000000000000, 0.0000000000000000000, -0.0000000000000000000 ) ) ;
#189 = SURFACE_SIDE_STYLE ('',( #17 ) ) ;
#190 = SURFACE_STYLE_USAGE ( .BOTH. , #224 ) ;
#191 = DIRECTION ( 'NONE',  ( -1.095614826932720348E-16, 1.000000000000000000, -0.0000000000000000000 ) ) ;
#192 = CARTESIAN_POINT ( 'NONE',  ( -60.00000000000000000, -95.00000000000002842, 10.00000000000000000 ) ) ;
#193 = SURFACE_STYLE_USAGE ( .BOTH. , #38 ) ;
#194 = SURFACE_STYLE_FILL_AREA ( #382 ) ;
#195 =( LENGTH_UNIT ( ) NAMED_UNIT ( * ) SI_UNIT ( .MILLI., .METRE. ) );
#196 = MECHANICAL_DESIGN_GEOMETRIC_PRESENTATION_REPRESENTATION (  '', ( #248 ), #126 ) ;
#197 = DIRECTION ( 'NONE',  ( 1.000000000000000000, 3.469446951953614682E-16, -0.0000000000000000000 ) ) ;
#198 = ORIENTED_EDGE ( 'NONE', *, *, #227, .F. ) ;
#199 = STYLED_ITEM ( 'NONE', ( #359 ), #35 ) ;
#200 = CYLINDRICAL_SURFACE ( 'NONE', #283, 5.499999999999998224 ) ;
#201 =( LENGTH_UNIT ( ) NAMED_UNIT ( * ) SI_UNIT ( .MILLI., .METRE. ) );
#202 = PRESENTATION_STYLE_ASSIGNMENT (( #308 ) ) ;
#203 = FILL_AREA_STYLE_COLOUR ( '', #367 ) ;
#204 = FILL_AREA_STYLE_COLOUR ( '', #52 ) ;
#205 = EDGE_CURVE ( 'NONE', #116, #160, #27, .T. ) ;
#206 = VECTOR ( 'NONE', #237, 1000.000000000000000 ) ;
#207 =( NAMED_UNIT ( * ) PLANE_ANGLE_UNIT ( ) SI_UNIT ( $, .RADIAN. ) );
#208 = ORIENTED_EDGE ( 'NONE', *, *, #18, .T. ) ;
#209 = DIRECTION ( 'NONE',  ( 0.0000000000000000000, 0.0000000000000000000, 1.000000000000000000 ) ) ;
#210 = MECHANICAL_DESIGN_GEOMETRIC_PRESENTATION_REPRESENTATION (  '', ( #266 ), #75 ) ;
#211 = CARTESIAN_POINT ( 'NONE',  ( 60.00000000000001421, -94.99999999999998579, 10.00000000000000000 ) ) ;
#212 = LINE ( 'NONE', #10, #130 ) ;
#213 = AXIS2_PLACEMENT_3D ( 'NONE', #185, #68, #90 ) ;
#214 = ORIENTED_EDGE ( 'NONE', *, *, #379, .T. ) ;
#215 = PRESENTATION_LAYER_ASSIGNMENT (  '', '', ( #266 ) ) ;
#216 = PRESENTATION_LAYER_ASSIGNMENT (  '', '', ( #199 ) ) ;
#217 = CARTESIAN_POINT ( 'NONE',  ( -60.00000000000002132, 94.99999999999997158, 10.00000000000000000 ) ) ;
#218 = CARTESIAN_POINT ( 'NONE',  ( 59.99999999999999289, 95.00000000000000000, 10.00000000000000000 ) ) ;
#219 =( NAMED_UNIT ( * ) SI_UNIT ( $, .STERADIAN. ) SOLID_ANGLE_UNIT ( ) );
#220 = SURFACE_SIDE_STYLE ('',( #173 ) ) ;
#221 = DIRECTION ( 'NONE',  ( -1.000000000000000000, 0.0000000000000000000, 0.0000000000000000000 ) ) ;
#222 = CARTESIAN_POINT ( 'NONE',  ( -5.499999999999998224, 34.99999999999999289, 10.00000000000000000 ) ) ;
#223 = DIRECTION ( 'NONE',  ( 1.095614826932720348E-16, -1.000000000000000000, 0.0000000000000000000 ) ) ;
#224 = SURFACE_SIDE_STYLE ('',( #59 ) ) ;
#225 = CARTESIAN_POINT ( 'NONE',  ( 0.0000000000000000000, 34.99999999999999289, -10.00000000000000000 ) ) ;
#226 = UNCERTAINTY_MEASURE_WITH_UNIT (LENGTH_MEASURE( 1.000000000000000082E-05 ), #375, 'distance_accuracy_value', 'NONE');
#227 = EDGE_CURVE ( 'NONE', #77, #19, #337, .T. ) ;
#228 = CARTESIAN_POINT ( 'NONE',  ( 5.499999999999998224, 34.99999999999999289, 10.00000000000000000 ) ) ;
#229 = LINE ( 'NONE', #298, #324 ) ;
#230 = FILL_AREA_STYLE_COLOUR ( '', #306 ) ;
#231 = PRESENTATION_LAYER_ASSIGNMENT (  '', '', ( #89 ) ) ;
#232 = DIRECTION ( 'NONE',  ( 0.0000000000000000000, 0.0000000000000000000, 1.000000000000000000 ) ) ;
#233 =( GEOMETRIC_REPRESENTATION_CONTEXT ( 3 ) GLOBAL_UNCERTAINTY_ASSIGNED_CONTEXT ( ( #142 ) ) GLOBAL_UNIT_ASSIGNED_CONTEXT ( ( #338, #184, #391 ) ) REPRESENTATION_CONTEXT ( 'NONE', 'WORKASPACE' ) );
#234 =( LENGTH_UNIT ( ) NAMED_UNIT ( * ) SI_UNIT ( .MILLI., .METRE. ) );
#235 = PRODUCT_RELATED_PRODUCT_CATEGORY ( 'part', '', ( #323 ) ) ;
#236 = DIRECTION ( 'NONE',  ( 1.000000000000000000, 0.0000000000000000000, 0.0000000000000000000 ) ) ;
#237 = DIRECTION ( 'NONE',  ( -0.0000000000000000000, -0.0000000000000000000, -1.000000000000000000 ) ) ;
#238 = LINE ( 'NONE', #343, #273 ) ;
#239 = EDGE_LOOP ( 'NONE', ( #394, #255, #260, #1 ) ) ;
#240 = VECTOR ( 'NONE', #164, 1000.000000000000000 ) ;
#241 = VERTEX_POINT ( 'NONE', #352 ) ;
#242 = ORIENTED_EDGE ( 'NONE', *, *, #336, .T. ) ;
#243 = EDGE_CURVE ( 'NONE', #150, #62, #229, .T. ) ;
#244 = ADVANCED_FACE ( 'NONE', ( #58 ), #200, .F. ) ;
#245 = SURFACE_STYLE_FILL_AREA ( #102 ) ;
#246 = FACE_OUTER_BOUND ( 'NONE', #239, .T. ) ;
#247 = DIRECTION ( 'NONE',  ( 1.000000000000000000, 2.312964634635742957E-16, 0.0000000000000000000 ) ) ;
#248 = STYLED_ITEM ( 'NONE', ( #85 ), #118 ) ;
#249 = ORIENTED_EDGE ( 'NONE', *, *, #243, .T. ) ;
#250 = CARTESIAN_POINT ( 'NONE',  ( 59.99999999999999289, 95.00000000000000000, 10.00000000000000000 ) ) ;
#251 = CARTESIAN_POINT ( 'NONE',  ( 59.99999999999999289, 95.00000000000000000, 10.00000000000000000 ) ) ;
#252 = SURFACE_STYLE_USAGE ( .BOTH. , #189 ) ;
#253 =( NAMED_UNIT ( * ) SI_UNIT ( $, .STERADIAN. ) SOLID_ANGLE_UNIT ( ) );
#254 =( NAMED_UNIT ( * ) PLANE_ANGLE_UNIT ( ) SI_UNIT ( $, .RADIAN. ) );
#255 = ORIENTED_EDGE ( 'NONE', *, *, #111, .F. ) ;
#256 =( NAMED_UNIT ( * ) SI_UNIT ( $, .STERADIAN. ) SOLID_ANGLE_UNIT ( ) );
#257 = PRESENTATION_STYLE_ASSIGNMENT (( #329 ) ) ;
#258 = VECTOR ( 'NONE', #69, 1000.000000000000000 ) ;
#259 = VECTOR ( 'NONE', #377, 1000.000000000000000 ) ;
#260 = ORIENTED_EDGE ( 'NONE', *, *, #14, .F. ) ;
#261 = APPLICATION_PROTOCOL_DEFINITION ( 'draft international standard', 'automotive_design', 1998, #168 ) ;
#262 = PRESENTATION_STYLE_ASSIGNMENT (( #252 ) ) ;
#263 = CARTESIAN_POINT ( 'NONE',  ( 0.0000000000000000000, 0.0000000000000000000, 0.0000000000000000000 ) ) ;
#264 = ORIENTED_EDGE ( 'NONE', *, *, #388, .T. ) ;
#265 = EDGE_LOOP ( 'NONE', ( #175, #165, #332, #249 ) ) ;
#266 = STYLED_ITEM ( 'NONE', ( #257 ), #274 ) ;
#267 =( GEOMETRIC_REPRESENTATION_CONTEXT ( 3 ) GLOBAL_UNCERTAINTY_ASSIGNED_CONTEXT ( ( #295 ) ) GLOBAL_UNIT_ASSIGNED_CONTEXT ( ( #42, #183, #219 ) ) REPRESENTATION_CONTEXT ( 'NONE', 'WORKASPACE' ) );
#268 = SURFACE_STYLE_FILL_AREA ( #36 ) ;
#269 = ORIENTED_EDGE ( 'NONE', *, *, #111, .T. ) ;
#270 =( GEOMETRIC_REPRESENTATION_CONTEXT ( 3 ) GLOBAL_UNCERTAINTY_ASSIGNED_CONTEXT ( ( #353 ) ) GLOBAL_UNIT_ASSIGNED_CONTEXT ( ( #234, #294, #106 ) ) REPRESENTATION_CONTEXT ( 'NONE', 'WORKASPACE' ) );
#271 = FILL_AREA_STYLE_COLOUR ( '', #339 ) ;
#272 = LINE ( 'NONE', #186, #258 ) ;
#273 = VECTOR ( 'NONE', #45, 1000.000000000000000 ) ;
#274 = ADVANCED_FACE ( 'NONE', ( #112 ), #386, .F. ) ;
#275 = STYLED_ITEM ( 'NONE', ( #21 ), #244 ) ;
#276 = VECTOR ( 'NONE', #191, 1000.000000000000000 ) ;
#277 = MECHANICAL_DESIGN_GEOMETRIC_PRESENTATION_REPRESENTATION (  '', ( #135 ), #180 ) ;
#278 = CARTESIAN_POINT ( 'NONE',  ( -60.00000000000002132, 94.99999999999997158, 10.00000000000000000 ) ) ;
#279 = FILL_AREA_STYLE_COLOUR ( '', #28 ) ;
#280 = FACE_OUTER_BOUND ( 'NONE', #105, .T. ) ;
#281 =( NAMED_UNIT ( * ) PLANE_ANGLE_UNIT ( ) SI_UNIT ( $, .RADIAN. ) );
#282 =( NAMED_UNIT ( * ) PLANE_ANGLE_UNIT ( ) SI_UNIT ( $, .RADIAN. ) );
#283 = AXIS2_PLACEMENT_3D ( 'NONE', #328, #24, #171 ) ;
#284 = FILL_AREA_STYLE_COLOUR ( '', #115 ) ;
#285 = CARTESIAN_POINT ( 'NONE',  ( 0.0000000000000000000, 34.99999999999999289, 10.00000000000000000 ) ) ;
#286 = CARTESIAN_POINT ( 'NONE',  ( 5.499999999999998224, 34.99999999999999289, -10.00099999999999767 ) ) ;
#287 = LINE ( 'NONE', #218, #206 ) ;
#288 = UNCERTAINTY_MEASURE_WITH_UNIT (LENGTH_MEASURE( 1.000000000000000082E-05 ), #201, 'distance_accuracy_value', 'NONE');
#289 =( NAMED_UNIT ( * ) PLANE_ANGLE_UNIT ( ) SI_UNIT ( $, .RADIAN. ) );
#290 = PRODUCT_DEFINITION_FORMATION_WITH_SPECIFIED_SOURCE ( 'ANY', '', #323, .NOT_KNOWN. ) ;
#291 = FACE_OUTER_BOUND ( 'NONE', #73, .T. ) ;
#292 = EDGE_LOOP ( 'NONE', ( #198, #76 ) ) ;
#293 = CARTESIAN_POINT ( 'NONE',  ( 0.0000000000000000000, 34.99999999999999289, 10.00000000000000000 ) ) ;
#294 =( NAMED_UNIT ( * ) PLANE_ANGLE_UNIT ( ) SI_UNIT ( $, .RADIAN. ) );
#295 = UNCERTAINTY_MEASURE_WITH_UNIT (LENGTH_MEASURE( 1.000000000000000082E-05 ), #42, 'distance_accuracy_value', 'NONE');
#296 = SURFACE_STYLE_FILL_AREA ( #7 ) ;
#297 = PRESENTATION_LAYER_ASSIGNMENT (  '', '', ( #275 ) ) ;
#298 = CARTESIAN_POINT ( 'NONE',  ( -60.00000000000000000, -95.00000000000002842, 10.00000000000000000 ) ) ;
#299 = STYLED_ITEM ( 'NONE', ( #81 ), #46 ) ;
#300 = FILL_AREA_STYLE ('',( #271 ) ) ;
#301 = MECHANICAL_DESIGN_GEOMETRIC_PRESENTATION_REPRESENTATION (  '', ( #22 ), #16 ) ;
#302 = UNCERTAINTY_MEASURE_WITH_UNIT (LENGTH_MEASURE( 1.000000000000000082E-05 ), #387, 'distance_accuracy_value', 'NONE');
#303 = CLOSED_SHELL ( 'NONE', ( #244, #35, #274, #118, #87, #148, #305, #32 ) ) ;
#304 = UNCERTAINTY_MEASURE_WITH_UNIT (LENGTH_MEASURE( 1.000000000000000082E-05 ), #369, 'distance_accuracy_value', 'NONE');
#305 = ADVANCED_FACE ( 'NONE', ( #179, #344 ), #372, .T. ) ;
#306 = COLOUR_RGB ( '',1.000000000000000000, 1.000000000000000000, 1.000000000000000000 ) ;
#307 = SURFACE_SIDE_STYLE ('',( #268 ) ) ;
#308 = SURFACE_STYLE_USAGE ( .BOTH. , #121 ) ;
#309 =( NAMED_UNIT ( * ) PLANE_ANGLE_UNIT ( ) SI_UNIT ( $, .RADIAN. ) );
#310 = SURFACE_SIDE_STYLE ('',( #86 ) ) ;
#311 =( LENGTH_UNIT ( ) NAMED_UNIT ( * ) SI_UNIT ( .MILLI., .METRE. ) );
#312 = FILL_AREA_STYLE ('',( #96 ) ) ;
#313 = DIRECTION ( 'NONE',  ( -1.000000000000000000, 0.0000000000000000000, -0.0000000000000000000 ) ) ;
#314 = CARTESIAN_POINT ( 'NONE',  ( 0.0000000000000000000, 0.0000000000000000000, 10.00000000000000000 ) ) ;
#315 = DIRECTION ( 'NONE',  ( 1.095614826932720348E-16, -1.000000000000000000, 0.0000000000000000000 ) ) ;
#316 = VECTOR ( 'NONE', #197, 1000.000000000000000 ) ;
#317 = ORIENTED_EDGE ( 'NONE', *, *, #243, .F. ) ;
#318 = ORIENTED_EDGE ( 'NONE', *, *, #373, .F. ) ;
#319 = CARTESIAN_POINT ( 'NONE',  ( 60.00000000000001421, -94.99999999999998579, -10.00000000000000000 ) ) ;
#320 = APPLICATION_PROTOCOL_DEFINITION ( 'draft international standard', 'automotive_design', 1998, #54 ) ;
#321 = SURFACE_SIDE_STYLE ('',( #245 ) ) ;
#322 = ORIENTED_EDGE ( 'NONE', *, *, #20, .T. ) ;
#323 = PRODUCT ( '7205462', '7205462', '', ( #325 ) ) ;
#324 = VECTOR ( 'NONE', #57, 1000.000000000000000 ) ;
#325 = PRODUCT_CONTEXT ( 'NONE', #54, 'mechanical' ) ;
#326 = ORIENTED_EDGE ( 'NONE', *, *, #205, .T. ) ;
#327 = VERTEX_POINT ( 'NONE', #349 ) ;
#328 = CARTESIAN_POINT ( 'NONE',  ( 0.0000000000000000000, 34.99999999999999289, -10.00099999999999767 ) ) ;
#329 = SURFACE_STYLE_USAGE ( .BOTH. , #107 ) ;
#330 = AXIS2_PLACEMENT_3D ( 'NONE', #88, #8, #221 ) ;
#331 = VECTOR ( 'NONE', #48, 1000.000000000000000 ) ;
#332 = ORIENTED_EDGE ( 'NONE', *, *, #97, .F. ) ;
#333 = VECTOR ( 'NONE', #370, 1000.000000000000000 ) ;
#334 = UNCERTAINTY_MEASURE_WITH_UNIT (LENGTH_MEASURE( 1.000000000000000082E-05 ), #9, 'distance_accuracy_value', 'NONE');
#335 = ORIENTED_EDGE ( 'NONE', *, *, #336, .F. ) ;
#336 = EDGE_CURVE ( 'NONE', #160, #62, #272, .T. ) ;
#337 = CIRCLE ( 'NONE', #393, 5.499999999999998224 ) ;
#338 =( LENGTH_UNIT ( ) NAMED_UNIT ( * ) SI_UNIT ( .MILLI., .METRE. ) );
#339 = COLOUR_RGB ( '',0.7529411764705882248, 0.7529411764705882248, 0.7529411764705882248 ) ;
#340 = PLANE ( 'NONE',  #37 ) ;
#341 = EDGE_LOOP ( 'NONE', ( #335, #371, #108, #3 ) ) ;
#342 = DIRECTION ( 'NONE',  ( 1.000000000000000000, 1.095614826932720348E-16, -0.0000000000000000000 ) ) ;
#343 = CARTESIAN_POINT ( 'NONE',  ( -5.499999999999998224, 34.99999999999999289, -10.00099999999999767 ) ) ;
#344 = FACE_OUTER_BOUND ( 'NONE', #341, .T. ) ;
#345 = CARTESIAN_POINT ( 'NONE',  ( -60.00000000000002132, 94.99999999999997158, -10.00000000000000000 ) ) ;
#346 = LINE ( 'NONE', #286, #83 ) ;
#347 = CARTESIAN_POINT ( 'NONE',  ( 60.00000000000001421, -94.99999999999998579, 10.00000000000000000 ) ) ;
#348 = FILL_AREA_STYLE_COLOUR ( '', #127 ) ;
#349 = CARTESIAN_POINT ( 'NONE',  ( -5.499999999999998224, 34.99999999999999289, -10.00000000000000000 ) ) ;
#350 =( NAMED_UNIT ( * ) PLANE_ANGLE_UNIT ( ) SI_UNIT ( $, .RADIAN. ) );
#351 = CARTESIAN_POINT ( 'NONE',  ( -60.00000000000000000, -95.00000000000002842, -10.00000000000000000 ) ) ;
#352 = CARTESIAN_POINT ( 'NONE',  ( 60.00000000000001421, -94.99999999999998579, 10.00000000000000000 ) ) ;
#353 = UNCERTAINTY_MEASURE_WITH_UNIT (LENGTH_MEASURE( 1.000000000000000082E-05 ), #234, 'distance_accuracy_value', 'NONE');
#354 = PRESENTATION_LAYER_ASSIGNMENT (  '', '', ( #299 ) ) ;
#355 = ORIENTED_EDGE ( 'NONE', *, *, #40, .F. ) ;
#356 =( NAMED_UNIT ( * ) SI_UNIT ( $, .STERADIAN. ) SOLID_ANGLE_UNIT ( ) );
#357 = PRESENTATION_LAYER_ASSIGNMENT (  '', '', ( #22 ) ) ;
#358 = AXIS2_PLACEMENT_3D ( 'NONE', #157, #342, #146 ) ;
#359 = PRESENTATION_STYLE_ASSIGNMENT (( #123 ) ) ;
#360 = AXIS2_PLACEMENT_3D ( 'NONE', #225, #34, #154 ) ;
#361 = COLOUR_RGB ( '',0.7529411764705882248, 0.7529411764705882248, 0.7529411764705882248 ) ;
#362 = AXIS2_PLACEMENT_3D ( 'NONE', #44, #162, #155 ) ;
#363 = UNCERTAINTY_MEASURE_WITH_UNIT (LENGTH_MEASURE( 1.000000000000000082E-05 ), #311, 'distance_accuracy_value', 'NONE');
#364 = LINE ( 'NONE', #319, #316 ) ;
#365 = PRESENTATION_STYLE_ASSIGNMENT (( #190 ) ) ;
#366 = DIRECTION ( 'NONE',  ( 1.000000000000000000, 3.469446951953614682E-16, -0.0000000000000000000 ) ) ;
#367 = COLOUR_RGB ( '',0.7529411764705882248, 0.7529411764705882248, 0.7529411764705882248 ) ;
#368 = DIRECTION ( 'NONE',  ( 2.312964634635742957E-16, -1.000000000000000000, 0.0000000000000000000 ) ) ;
#369 =( LENGTH_UNIT ( ) NAMED_UNIT ( * ) SI_UNIT ( .MILLI., .METRE. ) );
#370 = DIRECTION ( 'NONE',  ( -0.0000000000000000000, -0.0000000000000000000, -1.000000000000000000 ) ) ;
#371 = ORIENTED_EDGE ( 'NONE', *, *, #379, .F. ) ;
#372 = PLANE ( 'NONE',  #101 ) ;
#373 = EDGE_CURVE ( 'NONE', #116, #150, #389, .T. ) ;
#374 = CARTESIAN_POINT ( 'NONE',  ( 5.499999999999998224, 34.99999999999999289, -10.00000000000000000 ) ) ;
#375 =( LENGTH_UNIT ( ) NAMED_UNIT ( * ) SI_UNIT ( .MILLI., .METRE. ) );
#376 = FILL_AREA_STYLE_COLOUR ( '', #163 ) ;
#377 = DIRECTION ( 'NONE',  ( -0.0000000000000000000, -0.0000000000000000000, -1.000000000000000000 ) ) ;
#378 = EDGE_LOOP ( 'NONE', ( #385, #208 ) ) ;
#379 = EDGE_CURVE ( 'NONE', #12, #160, #138, .T. ) ;
#380 = ORIENTED_EDGE ( 'NONE', *, *, #71, .T. ) ;
#381 = SURFACE_STYLE_USAGE ( .BOTH. , #321 ) ;
#382 = FILL_AREA_STYLE ('',( #203 ) ) ;
#383 = STYLED_ITEM ( 'NONE', ( #365 ), #148 ) ;
#384 = CIRCLE ( 'NONE', #330, 5.499999999999998224 ) ;
#385 = ORIENTED_EDGE ( 'NONE', *, *, #40, .T. ) ;
#386 = PLANE ( 'NONE',  #362 ) ;
#387 =( LENGTH_UNIT ( ) NAMED_UNIT ( * ) SI_UNIT ( .MILLI., .METRE. ) );
#388 = EDGE_CURVE ( 'NONE', #128, #77, #346, .T. ) ;
#389 = LINE ( 'NONE', #278, #91 ) ;
#390 = SURFACE_STYLE_USAGE ( .BOTH. , #136 ) ;
#391 =( NAMED_UNIT ( * ) SI_UNIT ( $, .STERADIAN. ) SOLID_ANGLE_UNIT ( ) );
#392 = PRESENTATION_STYLE_ASSIGNMENT (( #147 ) ) ;
#393 = AXIS2_PLACEMENT_3D ( 'NONE', #293, #209, #236 ) ;
#394 = ORIENTED_EDGE ( 'NONE', *, *, #145, .T. ) ;
#395 = CIRCLE ( 'NONE', #26, 5.499999999999998224 ) ;
#396 = ORIENTED_EDGE ( 'NONE', *, *, #205, .F. ) ;
ENDSEC;
END-ISO-10303-21;
